Song name
# A B C D E F G H I J K L M N O P Q R S T U V W X Y Z

Nirvana - You Know Youre Right tab

Artist: Nirvana
Title: You Know You’re Right
Album: Nirvana
Tuning: Down half step (Eb, Bb, Gb, Db, Ab, Eb)

Tabbed by: Tony Goodwin

Legend:
* - Pick strings between the bridge and tailpiece with picking hand, while plucking and 
on notes on 6th string with the fretting hand.
P.M. – Palm mute
h – Hammer on
p – Pick off
b - Bend
~ - Vibrato
__ - Tremolo picking

-Intro-
Gtr. 1 (Clean)
    *
E|-----------x--------------x-----|-----------x--------------x----|
B|-------x------------------------|-------x--------x--------------|
G|--x-----------x--------x-----x--|--x-----------x-------x-----x--|
D|--------------------------------|-------------------------------|
A|--------------------------------|-------------------------------|
E|--0h2-------------0h2-----------|--0h2-----------0—(0)h2--------|

E|-----------x-----------------x-------|-----------x--------------|
B|-------x--------x--------x-----------|-------x------------------|
G|--x-----------x-------x---------x-x--|--x-----------------------|
D|-------------------------------------|--------------------------|
A|-------------------------------------|--------------------------|
E|--0h2---------------0h2--------------|--0h2---------------------|

P.M.---------------------------------------------------------------------------|
E|-------------------------------------|---------------------------------------|
B|-------------------------------------|---------------------------------------|
G|-------------------------------------|---------------------------------------|
D|-----------4----4--------------------|---------------------------------------|
A|--4----4------4-------4------4----4--|----4------4-----4------------4-----4--|
E|--0h2---------------0----2---2--0----|--2----2---2p0-0-----0-2--2---2p0-0----|

P.M.----------------------------------------------------------------------------|
E|---------------------------------------|--------------------------------------|
B|---------------------------------------|--------------------------------------|
G|---------------------------------------|--------------------------------------|
D|-----------------4---------------------|--------------------------------------|
A|----4------4-----------4------4-----4--|-----------4-----4-----4------4----4--|
E|--2----2---2h0-0-----0----2---2p0-0----|--0-2--2---2p0-0-----0----2---2p0--0--|

-Verse-
P.M.----------------------------------------------------------------------------|
E|---------------------------------------|--------------------------------------|
B|---------------------------------------|--------------------------------------|
G|---------------------------------------|--------------------------------------|
D|---------------------------------------|----------------4---------------------|
A|--4----4---4-----4-----4------4-----4--|----4------4----4-----4------4-----4--|
E|--0h2------2p0-0-----0----2---2p0-0----|--2----2---2--0----------2---2p0-0----|

P.M.-------------------------------------------------------------------------|             w/dist.
E|---------------------------------------|-----------------------------------|
B|---------------------------------------|-----------------------------------|
G|---------------------------------------|-----------------------------------|
D|---------------------------------------|-----------------------------------|
A|-----------------4------------4-----4--|----4------4--4-4-----4---4---0-0--|
E|--0h2--2---2p0-0-----0-2--2---2p0-0----|--2----2---2--2-2-----2---2---0-0--|

Rhy. Fig. 1                                       End Rhy. Fig. 1
E|-------------------------|------------------------------------|
B|--7---7---7----7--7---7--|--9--9---9--9-9-----9--9---9-9--9\--|
G|--7---7---7----7--7---7--|--9--9---9--9-9-----9--9---9-9--9\--|
D|--7---7---7----7--7---7--|--9--9---9--9-9-----9--9---9-9--9\--|
A|--5---5---5----5--5---5--|--7--7---7--7-7-----7--7---7-7--7\--|
E|-------------------------|------------------------------------|

Dist. Off
Let ring-------------------------------------------------|
E|-------------------------------|-----------------------|
B|-------------------------------|-----------------------|
G|-----------4-------------------|-----------------------|
D|----------------------------4--|--4---4----4--4---4----|
A|-------4-------4---4-4--4------|-----------------------|
E|--0h2--------------------------|-----------------------|

E|-----------------------------|------------------------------------|
B|-----------------------------|------------------------------------|
G|-----------------------------|------------------------------------|
D|--4---4----------------------|------------------------------------|
A|-----------------------------|--4----4---4--4---4--4--4--4--4-----|
E|----------0h2-2--2---2h0--0--|--0h2--2---2--2---2--2--2--2--2--0--|

Let ring-----------------------|         let ring--------|
                                                    w/dist.
E|-------------------------------|-------------------------------|
B|---------7---------------7-----|-----------9-------------------|
G|-------------7-----------------|-----------9---9---------------|
D|-----7---------------7---------|---^-----------9---------^-----|
A|--5---------------5---------5--|--5/7--7----------7-7---7/12\--|
E|-------------------------------|-------------------------------|

-Pre-Chorus-
Rhy. Fig. 2                                            End Rhy. Fig. 2
E|---------------------------------|---------------------------------|
B|---------------------------------|---------------------------------|
G|---------------------------------|---------------------------------|
D|--4----4---4--4---4----4---4--4--|--4----4---4--4---4----4---4--4--|
A|--4----4---4--4---4----4---4--4--|--4----4---4--4---4----4---4--4--|
E|--0h2--2---2--0---0h2--2---2--0--|--0h2--2---2--0---0h2--2---2--0--|

Gtr. 1: w/Rhy. Fig. 2

Gtr. 1: w/Rhy. Fig. 1

-Chorus-
       ~~~~~~~~~~~
E|---------------------|--------------|-------|-------------------|
B|---------------------|--------------|-------|-------------------|
G|---------------------|--------------|-------|-------------------|
D|---------------------|--------------|-------|-------------------|
A|---------------------|--------------|-------|-------------------|
E|--0h2-----------(2)--|--------(2)b--|--(2)--|--(2)---(2)---(2)--|

-Verse-
Gtr. 1 (Tacet)
E|-----------------------------------------|-----------------------------------------|
B|-----------------------------------------|-----------------------------------------|
G|-----------------------------------------|-----------------------------------------|
D|-----------------------------------------|-----------------------------------------|
A|-----------------------------------------|-----------------------------------------|
E|--0-2-2-2---2-0-0-0---0-2-2-2---2-0-0-0--|--0-2-2-2---2-0-0-0---0-2-2-2---2-0-0-0--|

E|-----------------------------------------|----------------------------------------|
B|-----------------------------------------|----------------------------------------|
G|-----------------------------------------|----------------------------------------|
D|-----------------------------------------|----------------------------------------|
A|-----------------------------------------|----------------------------------------|
E|--0-2-2-2---2-0-0-0---0-2-2-2---2-0-0-0--|--0-2-2-2---2-0-0-0---0-2-2-2---2-0--0--|

Gtr. 2 (Tacet)
E|-------------------------------|------------------------------|
B|---------7---------------7-----|-----------9--------------9\--|
G|-------------7--------------7--|----------------9-------------|
D|-----7---------------7---------|---^---9------9-------9-------|
A|--5---------------5------------|--5/7-------------------------|
E|-------------------------------|------------------------------|

P.M.----------------------------------------------------------------------|
E|-----------------------------------|------------------------------------|
B|-----------------------------------|------------------------------------|
G|--------4--------------------------|------------------------------------|
D|-----------------------------------|------------------------------------|
A|-------------4-----4------4-----4--|--4------4----4-----4------4-----4--|
E|--0h2------2-----0----2---2p0-0----|--0h2----2--2-----0----2---2p0-0----|

P.M.-----------------------------------------------------------------|                w/dist.
E|-----------------------------------|-------------------------------|
B|-----------------------------------|-------------------------------|
G|---------4-------------------------|-------------------------------|
D|---------------------------4----4--|-------------------------------|
A|--------------4-----4---------4----|----4------4----4-----4--4--0--|
E|--0h2-------2-----0----2-----------|--2----2---2----2-----2--2--0--|

Gtr. 1: Rhy. Fig. 1

-Pre-Chorus-
Gtr. 1: w/Rhy. Fig. 2 (2 times)

Gtr. 1: w/Rhy. Fig. 1

-Chorus-
       ~~~~ ~~           ~~~
E|------------------------------|------------------|
B|--------------------------5b--|--5b--/--8b---8\--|
G|------------------------------|--__-----__-------|
D|------------------------------|------------------|
A|------------------------------|------------------|
E|--0h2----2--0-0----2--2-------|------------------|

E|-----------------------------------|-------------------------------------|
B|--\2-------------------------------|-------------------------------------|
G|-----------------------------------|-------------------------------------|
D|-----------------------------------|-------------------------------------|
A|-----------------------------------|-------------------------------------|
E|------2-----0-0----2--2---2p0-0-0--|--0h2--2---2--2-2----2--2---2-2-2p0--|

E|--------------------------|--------------------|-------5b-------------|
B|----------------------5b--|--0-----------------|-------5b---5b--------|
G|--------------------------|-----3-----4--3--4--|--3-------------3--4--|
D|--------------------------|--------------------|----------------------|
A|--------------------------|--------------------|----------------------|
E|--0h2--2---2--0-0---------|--------------------|----------------------|

E|---------------------|--------------------|-----------------------|
B|------5b-------------|-------5b-----------|-------5b--------------|
G|--3---------4--3--4--|--3--------4--3--4--|--3-----------4--3--4--|
D|---------------------|--------------------|-----------------------|
A|---------------------|--------------------|-----------------------|
E|---------------------|--------------------|-----------------------|

          ~~~~~~                  ~~~~~                  ~~~~~
E|-----------------------|----------------------|----------------------|----------|
B|-------5b-----5--------|-------5b-------------|-------5b-------------|------5b--|
G|--3\-------------3--4--|--3\---------4--3--4--|--3\---------4--3--4--|--3-------|
D|-----------------------|----------------------|----------------------|----------|
A|-----------------------|----------------------|----------------------|----------|
E|-----------------------|----------------------|----------------------|----------|

E|---------------------|----------|-----------|
B|--(5)---(5)p0---(0)--|----------|-----------|
G|---------------------|----------|-----------|
D|---------------------|-----(0)--|-----------|
A|---------------------|----------|------(2)--|
E|---------------------|----------|--2--------|

-Outro-
E|-----------x------------x--|-----------x-----x----------x--|-----------x-------x--|
B|-------x------x------------|-------x-------------x---------|-------x--------------|
G|--x-----------------x------|--x---------------------x------|--x------------x------|
D|---------------------------|-------------------------------|----------------------|
A|---------------------------|-------------------------------|----------------------|
E|--0h2----------------------|--0h2--------------------------|--0h2-----------------|

E|-----------x---------x--|-------|
B|-------x---------x------|-------|
G|--x---------------------|--x----|
D|------------------------|-------|
A|------------------------|-------|
E|--0h2-------------------|--0h2--|

-Lyrics-
I will nev – er both – er you.
I will nev – er prom – ise to.__
I will nev – er fol – low you.
I will nev – er both – er you.

Nev – er speak a word_ a – gain.__
I will crawl a – way- for good.

I will move a – way_ from here.
You won’t be a – fraid_ of fear.
And I thought I was fooled in – to this,
And al – ways knew it would come_ to this.

Things have nev –er been_ so swell.
Ihave nev – er felt_ or failed.

Hey.____________________
Hey.____________________
You know you’re__ right.__
You know you’re__ right.__
You know you’re__ right.__

So, wom – an, come_ in – side.
I no long – er have_ to hide._
Let’s talk a – bout some – one else._
Steam – ing Sue be – gins_ to melt._

Noth – ing real – ly both – ers her,
She just wants to love_ her – self.__

I will move a – way from here.
You won’t be a – fraid_ of fear.__
And I thought I was fooled in – to this,
And al – ways knew it’d come_ to this.__

Things have nev –er been__ so swell.__
I have nev – er felt__ or failed.

Hey.____________________
Hey.____________________
Hey.____________________
You know you’re__ right.__
You know you’re__ right.__
You know you’re__ right.__
You know you’re__ right.__
You know you’re__ right.__
You know you’re__ right.__
You know you’re__ right.__
You know you’re__ right.__
You know you’re__ right.__
You know you’re__ right.__
You know you’re__ right.__
You know you’re__ right.__
You know you’re__ right.__
You know you’re__ right.__
You know you’re__ right.__
You know you’re__ right.__
You know you’re__ right.__
Tap to rate this tab
# A B C D E F G H I J K L M N O P Q R S T U V W X Y Z