Guitaretab - guitar tabs
Song name
# A B C D E F G H I J K L M N O P Q R S T U V W X Y Z

No Cash - Skate Or Die tab

No-Cash - Skate Or Die
Run Your Pockets - 2003 - Track 5
Tabbed by: Stephen Parsons - Stevopar@gmail.com

Chords:
  G   G/B G/C G   Bmin C
e|3---3---3---3---2----3-----------|
B|0---0---0---3---3----5-----------|
G|0---0---0---4---4----5-----------|
D|0---x---x---5---4----5-----------|
A|x---2---3---5---2----3-----------|
E|3-----------3--------------------|

||Intro
|Guitar 1 - The picking is something like this, with variations thrown in. Also sounds 
there is some reverb on
  G                                G/B             G/C
e|--------------------------------|--------------------------------|
B|----------------------0---0-----|------0---0---0-------0---0-----|
G|------0---0---0-----------0---0-|--0-------0-0-------0-----0-----|
D|--0---------0-----0---------0---|--------------------------------|
A|--------------------------------|2---2-----------2h3---------3/5-|
E|3---3-----------3---3-----------|--------------------------------|

|Guitar 2 - Natural harmonics, something close to:
e|nh--------------|nh------nh------|----------------|---nh------nh---|
B|12--------------|12-nh---12-nh---|12nh------------|---12nh----12nh-|
G|----------------|---12nh----12nh-|12nh------------|nh---12-nh---12-|
D|----------------|-----12------12-|12nh------------|12------12------|
A|----------------|----------------|----------------|----------------|
E|----------------|----------------|----------------|----------------|
nh=natural harmonic

||Verse Clean
|Guitar 1
    G
i'm bustin out of this hole
Bmin            C          G
breakin out and breakin in i have got an evil soul
Bmin               C           G
rippin shit with a wicked grin i know my enemies
Bmin           C           G
everyone who's not like me dont ya try and stop me, pig
Bmin                C
i'm on my board and now i'm free

|Guitar 2 - Keep playing the natural harmonics

||Pre-Verse
|Guitar 1
e|----------------|----------------|
B|----------------|----------------|
G|----------------|-------m4~-m5~--|
D|---------------m|5~-----44~-55~--| x4 last 2 times just strum
A|---------------5|5~-----22~-33~--|
E|---------------3|3~--------------|
        '...now im free'

|Guitar 2
e|--------------------------------|--------------------------------|
B|--------------------------------|--------------------------------|
G|--------*-------11------12------|1112-12-1112-12-1112-12-1112-12-|
D|--------5-------x-------x-------|x-x--x--x-x--x--x-x--x--x-x--x--|
A|----------------9-------10------|9-10-10-9-10-10-9-10-10-9-10-10-|
E|--------------------------------|--------------------------------|
*=pinch harmonic                   \           Riff 1              /

e|3-------3--------7------8-------|15------1715----15------1715----1915--1715--1915--1715----------|
B|---3-------3--------7------8----|----15------15------15------15------15----15----15----15--------|
G|------4-------4-------7-------9-|----------------------------------------------------------------|
D|--------------------------------|----------------------------------------------------------------|
A|--------------------------------|----------------------------------------------------------------|
E|--------------------------------|----------------------------------------------------------------|

||Verse
|Guitar 1 - Powerchords, same as pre-verse
G
i'm bustin out of this hole
Bmin            C          G
breakin out and breakin in i have got an evil soul
Bmin               C           G
rippin shit with a wicked grin i know my enemies
Bmin           C           G
everyone who's not like me dont ya try and stop me, pig
Bmin                C
i'm on my board and now i'm free

|Guitar 2
e|----------------|----------------|----------------|----------------|
B|----------------|----------------|----------------|----------------|
G|--------*------m|4-------5-------|*---------------|4-------5-------|
D|5-------5------4|4-------5-------|5---------------|4-------5-------|
A|5--------------2|2-------3-------|----------------|2-------3-------|
E|3---------------|----------------|----------------|----------------|

e|----------------|----------------|----------------|----------------|
B|----------------|----------------|----------------|??--------------|
G|1112-12-1112-12-|1112-12-1112-12-|1112-12-1112-12-|12--------------|
D|x-x--x--x-x--x--|x-x--x--x-x--x--|x-x--x--x-x--x--|x---------------|
A|9-10-10-9-10-10-|9-10-10-9-10-10-|9-10-10-9-10-10-|10--------------|
E|----------------|----------------|----------------|----------------|

||Chorus
|Guitar 1
e|----------------|----------------|
B|----------------|------------m-mm|
G|----7---4---5---|----7---4---5-55|
D|5---7---4---5---|5---7---4---5-55|
A|5---5---2---3---|5---5---2---3-33|
E|3---------------|3---------------|
Skate or die x4

|Guitar 2
e|----------------|----------------|
B|----------------|----------------|
G|12--7---4---5---|7---14---11-1212|
D|x---x---x---x---|x---x----x--x-x-|
A|10--5---2---3---|5---12---9--1010|
E|----------------|----------------|
[ Tab from: http://www.guitaretab.com/n/no-cash/73229.html ]
||Verse (Modified)
|Guitar 1 - Powerchords, listen for the pinch harmonics during the 1st and 3rd bar
G
what the fuck is sense of pride
Bmin                C
shut yer mouths and live yer lives
G
live to skate, skate or die
Bmin            C
with this motto i'll survive
G
we'll rot away on that played out curb
Bmin              C
resting on broken glass and dirt
G
and to all of you who stood in our way:
Bmin              C
you will get what you deserve

|Guitar 2 - Slightlty differnet
e|----------------|----------------|----------------|3-------3-------|
B|----------------|----------------|----------------|---3-------3----|
G|--------*------m|4-------5-------|*---------------|------4-------4-|
D|5-------5------4|4-------5-------|5---------------|----------------|
A|5--------------2|2-------3-------|----------------|----------------|
E|3---------------|----------------|----------------|----------------|

e|3-------3--------7------8-------|15------1715----15------1715----1915--1715--1915--1715--1917----|
B|---3-------3--------7------8----|----15------15------15------15------15----15----15----15--------|
G|------4-------4-------7-------9-|----------------------------------------------------------------|
D|--------------------------------|----------------------------------------------------------------|
A|--------------------------------|----------------------------------------------------------------|
E|--------------------------------|----------------------------------------------------------------|

||Chorus (Modified)
|Guitar 1
e|----------------|----------------|
B|----------------|------------m-mm|
G|----7---4---5---|----7---4---5-55|
D|5---7---4---5---|5---7---4---5-55|
A|5---5---2---3---|5---5---2---3-33|
E|3---------------|3---------------|
Skate or die x4

|Guitar 2
e|----------------|--------------------------------|
B|----------------|--------------------------------|
G|12--7---4---5---|1112-12-1112-12-1112-12-11-1111-|
D|x---x---x---x---|x-x--x--x-x--x--x-x--x--x--x-x--|
A|10--5---2---3---|9-10-10-9-10-10-9-10-10-9--9-9--|
E|----------------|--------------------------------|

||Solo
|Guitar 1 - Rythym
e|----------------|----------------|
B|----------------|----------------|
G|--------4---5---|1112-12-1112-12-|
D|5-------4---5---|x-x--x--x-x--x--|
A|5-------2---3---|9-10-10-9-10-10-|
E|3---------------|----------------|

|Guitar 2
e|10--10--108-7---8--88---7-------|10--10--14-15-148---8---7-------|10--10--108-7-------------------|
B|--------------------------108---|--------------------------108---|--------------------------------|
G|--------------------------------|--------------------------------|----------------0-2-4-5-4---2---|
D|---------------------------x2---|--------------------------------|--------------------------------|
A|--------------------------------|--------------------------------|--------------------------------|
E|--------------------------------|--------------------------------|--------------------------------|

e|----------------|
B|----------------|
G|4~--------------|
D|----------------| end solo
A|----------------|
E|----------------|

||Bridge
|Guitar 1 - close to this
e|----------------|----------------|
B|8-78-78-----108-|----7-8-----7-8-|
G|----------7-----|----------------| x4
D|----------------|9-------10------|
A|----------------|----------------|
E|----------------|----------------|

|Guitar 2 - Silent 1st 2 times (continuing from end solo), then same riff as guitar 1 twice

||Pre-verse (Modified)
|Guitar 1 - Powerchords x4
G Bmin C

|Guitar 2
e|------------3/19|1915--1715--1915--1715--19151715|
B|silent----------|----15----15----15----15--------|
G|-then-----------|--------------------------------|
D|----------------|--------------------------------|
A|----------------|--------------------------------|
E|----------------|--------------------------------|

||Chorus (Mod again)
|Guitar 1
e|----------------|----------------|
B|----------------|----------------|
G|----7---4---5---|----7---4---5---|
D|5---7---4---5---|5---7---4---5---| x2
A|5---5---2---3---|5---5---2---3---|
E|3---------------|3---------------|
Skate or die x8

|Guitar 2
e|----------------|----------------|--------------------------------|----------------|
B|----------------|----------------|--------------------------------|----------------|
G|12--14--11--12--|12--14--16--1212|1112-12-1112-12-1112-12-11-1111-|12--7---4---5---|
D|x---x---x---x---|x---x---x---x-x-|x-x--x--x-x--x--x-x--x--x--x-x--|x---x---x---x---|
A|10--12--9---10--|10--12--14--1010|9-10-10-9-10-10-9-10-10-9--9-9--|10--5---2---3---|
E|----------------|----------------|--------------------------------|----------------|

||End
|Guitar 1
e|----------------|----------------|
B|----------------|----------------|
G|----------------|----------------|
D|5~--------------|5---------------|
A|5~--------------|5---------------|
E|3~--------------|3---------------|

|Guitar 2
e|----------------|----------------|
B|----------------|----------------|
G|----------------|12--------------|
D|5~--------------|x---------------|
A|5~--------------|10--------------|
E|3~--------------|----------------|

Order:
Intro
Verse Clean
Pre-verse
Verse Distorted
Chorus
Verse
Chorus
Solo
Bridge
Pre-verse
Chorus
End

That's all kiddos, you can mess around with it a lot. No-Ca$h forever.
Related for Skate Or Die tab
Skate Or Die chords by No Cash