Song name
# A B C D E F G H I J K L M N O P Q R S T U V W X Y Z

No Doubt - Dont Let Me Down tab

This is the solo from ND's DLMD. The first bit is on keyboard then on guitar. Great song!

Keyboard:
|-------------------------------------------12--------13/12-10--------|
|-10/12-13--------15/13-10--------13/15-------------------------------|
|---------------------------------------------------------------------|
|---------------------------------------------------------------------|
|---------------------------------------------------------------------|
|---------------------------------------------------------------------|

|-------------------------------------------12-------13/12-10--------------|
|-10/12-13-------12/13/12-10-------13/15--------------------------10/12----|
|--------------------------------------------------------------------------|
|--------------------------------------------------------------------------|
|--------------------------------------------------------------------------|
|--------------------------------------------------------------------------|


Guitar: (after keyboard)

|-8-------------------------------------------------------------|
|--------8--------10-------------10-----------------------------|
|-----------9------------10---------------10--------------------|
|-----------------------------10---------------10---------------|
|--------------------------------------------------12-----------|
|---------------------------------------------------------------|

|-8-------------------------------------------------------------|
|--------8------------------------------------------------------|
|-----------9-9/10/9---9/7-5-5-----7-----9-----2----------------|
|----------------------------5-----7-----9-----2----------------|
|---------------------------------------------------------------|
|---------------------------------------------------------------|
Tap to rate this tab
 
# A B C D E F G H I J K L M N O P Q R S T U V W X Y Z