Song name
# A B C D E F G H I J K L M N O P Q R S T U V W X Y Z

No Justice - Toast tab

Title:__The Toast
Solo 1  Clean
-------6----------------------------------------------------|
---------6-------------------------3h6----------------------|
---5b--------5r--------3--5--3----5-------------3-----5--3--|
-----------------3--5--------------------3--5-----5---------|
------------------------------------------------------------|
------------------------------------------------------------|

End Solo distortion starts on Here’s to me
---------------------------------------------------------|
---------------------------19b-19b-19b--16-15-16-15------|
---------15-----15----17b-----------------------------17-|
--15-17-----17-------------------------------------------|
---------------------------------------------------------|
---------------------------------------------------------|

------------------------------|
------------------------------|
-17-15-17---15--15--15--------|
------------------------------|
------------------------------|
------------------------------|
Tap to rate this tab
# A B C D E F G H I J K L M N O P Q R S T U V W X Y Z