Song name
# A B C D E F G H I J K L M N O P Q R S T U V W X Y Z

No Mayers 50 - Every Single Day tab

Every Single Day

Verse
H
I know there's something wrong
G#
What once felt so strong
E
Is gone and I can't see why
F#
Wanna know the reason for that

One day long ago
Makes me wanna know
Usually we seemed to care
Now you're gone and every single day

Chorus
H		G#
... You're not here
		E
Makes me feel so wrong
		F#
Pretending it's unreal

  H		 F#  H		    F#
|------------------|------------------|
|------------------|------------------|
|-4--4-4--4-4--4---|-4--4-4--4-4--4---|
|-4--4-4--4-4--4-4-|-4--4-4--4-4--4-4-|
|-2--2-2--2-2--2-4-|-2--2-2--2-2--2-4-|
|----------------2-|----------------2-|

Verse

I know there's something wrong
What once felt so strong
Is gone and I can't see why
Wanna know the reason for that

One day long ago
Makes me wanna know
Usually we seemed to care
Now you're gone and every single day

Chorus

You're not here
Makes me feel so wrong
Pretending it's unreal

Bridge

  A		    E		  H		     F#
|-----------------|-------------|------------------|------------------|
|-10--10--10--10--|-9--9--9--9--|-12--12--12--12---|-11--11--11--11---|
|---9---9---9---9-|--9--9--9--9-|---11--11--11--11-|---11--11--11--11-|
|-----------------|-------------|------------------|------------------|
|-----------------|-------------|------------------|------------------|
|-----------------|-------------|------------------|------------------|

  A			    E		      F#			F#
|-------------------------|-----------------|-------------------------|--------------------------------|
|-10-10-10-10-10-10-10-10-|-9-9-9-9-9-9-9-9-|-11-11-11-11-11-11-11-11-|-11-11-11-11-11-11-11-11-11-----|
|-10-10-10-10-10-10-10-10-|-9-9-9-9-9-9-9-9-|-11-11-11-11-11-11-11-11-|-11-11-11-11-11-11-11-11-11-----|
|-------------------------|-----------------|-------------------------|--------------------------------|
|-------------------------|-----------------|-------------------------|--------------------------------|
|-------------------------|-----------------|-------------------------|--------------------------------|


A			     E
These days make me feel like home
			     H		F#
These days make me feel like friendship last forever
A			     E
These days make me feel like home
			     F#
These days make me feel ... forever

Verse

It makes me wanna know
Though I don't I wanna go
Usually we seemed to care
Now you're gone


Chorus

  H		G#		E	      F#
|-7--7--7--7-9-|-7--7--7--7-9-|-7--7--7--7-9-|-6--6--6--6---|
|--7--7--7-----|--7--7--7-----|--7--7--7-----|--7--7--7--7--|
|--------------|--------------|--------------|--------------|
|--------------|--------------|--------------|--------------|
|--------------|--------------|--------------|--------------|
|--------------|--------------|--------------|--------------|

And every single day
You're not here
Makes me feel so wrong
Pretending it's unreal

Wrong
You're not here
I'm still near
Pretending it's unreal 


NEW BAND: the official website is: http://www.nm50.com
Tap to rate this tab
 
# A B C D E F G H I J K L M N O P Q R S T U V W X Y Z