Song name
# A B C D E F G H I J K L M N O P Q R S T U V W X Y Z

No Resolve - Last Time I Lie tab

http://www.noresolvemusic.com/

Intro:
E|-------------------------------------------|
B|-------------------------------------------|
G|-----------6~------------------------------|
D|-----8--------------------------8~---------|
A|--6-----6-----------------9----------------|
E|-----------------------7-----7-------------|

E|-------------------------------------------|
B|-------------------------------------------|
G|----------6~-------------------------------|
D|----8--------------------------8~-----8----|
A|-6-----6-----------------9---------------7-|
E|----------------------7-----7--------------|

Verse x2:
  Part became faster  X2 
E|---------------------|---------------------|
B|---------------------|---------------------|
G|----------6----------|---------------------|
D|----8-----------8----|----------8~----9--8-|
A|-6-----6-----6-----6-|----9----------------|
E|---------------------|-7-----7-------------|

                       X2 
E|---------------------|---------------------|
B|---------------------|---------------------|
G|----------6----------|---------------------|
D|----8--------8-----8-|----------8~----8----|
A|-6-----6--------6----|----9--------------7-|
E|---------------------|-7-----7-------------|
Tap to rate this tab
# A B C D E F G H I J K L M N O P Q R S T U V W X Y Z