Guitaretab - guitar tabs
Song name
# A B C D E F G H I J K L M N O P Q R S T U V W X Y Z

Noah And The Whale - 5 Years Time tab

-------------------------------------------------------------------------------
			     5 Years Time - Noah And The Whale
-------------------------------------------------------------------------------
Tabbed by:willistabs
Email:maxwillis@yahoo.co.uk

Tuning:EADGBE
The Intro
e|-8--8--8-x----------x----------x------------------------------------------|
B|-8--8--8-x----------x----------x------------------------------------------|
G|-9--9--9-x-10-10-10-x-12-12-12-x-10-10-10---------------------------------|
D|10-10-10-x-10-10-10-x-12-12-12-x-10-10-10---------------------------------|
A|10-10-10-x--8--8--8-x-10-10-10-x--8--8--8---------------------------------|
E|-8--8--8-x--8--8--8-x-10-10-10-x--8--8--8---------------------------------|
Do that 20 times.
Then Play:
e|-12-12-10-12-12-10-12-12-10-12-15----10-----------------------------------|
B|----------------------------------13--------------------------------------|
G|--------------------------------------------------------------------------|
D|--------------------------------------------------------------------------|
A|--------------------------------------------------------------------------|
E|--------------------------------------------------------------------------|
That is played twice (and not played on guitar), but here is the guitar version.
[ Tab from: http://www.guitaretab.com/n/noah-and-the-whale/111183.html ]
e|-8--8--8-x----------x----------x------------------------------------------|
B|-8--8--8-x----------x----------x------------------------------------------|
G|-9--9--9-x-10-10-10-x-12-12-12-x-10-10-10---------------------------------|
D|10-10-10-x-10-10-10-x-12-12-12-x-10-10-10---------------------------------|
A|10-10-10-x--8--8--8-x-10-10-10-x--8--8--8---------------------------------|
E|-8--8--8-x--8--8--8-x-10-10-10-x--8--8--8---------------------------------|
Then this is played 16 times.

e|-12-12-10-12-12-10-12-12-10-12-15----10-----------------------------------|
B|----------------------------------13--------------------------------------|
G|--------------------------------------------------------------------------|
D|--------------------------------------------------------------------------|
A|--------------------------------------------------------------------------|
E|--------------------------------------------------------------------------|
Then you will here this being played 5 times, and the riff being cut off half way 
the 6th time.

e|-8--8--8-x----------x----------x------------------------------------------|
B|-8--8--8-x----------x----------x------------------------------------------|
G|-9--9--9-x-10-10-10-x-12-12-12-x-10-10-10---------------------------------|
D|10-10-10-x-10-10-10-x-12-12-12-x-10-10-10---------------------------------|
A|10-10-10-x--8--8--8-x-10-10-10-x--8--8--8---------------------------------|
E|-8--8--8-x--8--8--8-x-10-10-10-x--8--8--8---------------------------------|
Then the intro will be played 4 last times, and the first chord played once on the fifth time.

| /  slide up
| \  slide down
| h  hammer-on
| p  pull-off
| ~  vibrato
| +  harmonic
| x  Mute note
===============================================================================
Related for 5 Years Time tab
×
5 Years Time