Song name
# A B C D E F G H I J K L M N O P Q R S T U V W X Y Z

Nobody Knew - Losing Interest tab

---------------------------------------------------------------------------
			     LOSING INTEREST - Nobody Knew
---------------------------------------------------------------------------

Tabbed by: Eric Minardi
Email: nobodyknew_music@hotmail.com

Tuning: Standard
www.nobodyknew.net
www.myspace.com/nobodyknew
www.purevolume.com/nobodyknew

Intro:
e|------------------------------------------------------------------|
B|-----1---------------1-----------------------------------1--------|
G|-------0---0---0-------0---0---0-----0-----0---------2-----2---2--|
D|---2-----3---3-----2-----3---3-----0-----0-----0---2---2-----2----|
A|-3---------------3---------------2-----2-----2---0----------------|
E|------------------------------------------------------------------|

e|------------------------------------------------------------------|
B|-----1---------------1-----------------------------------1--------|
G|-------0---0---0-------0---0---0-----0-----0---------2-----2---2--|
D|---2-----3---3-----2-----3---3-----0-----0-----0---2---2-----2----|
A|-3---------------3---------------2-----2-----2---0----------------|
E|------------------------------------------------------------------|

Chords used:(alot of Cs)
    C    C2   Am   Em   C/Am? Cm   C3   C4        maybe G and Gm
e|--0----0----0----0----0-----0----0----3---------------3(0)--0----|
B|--1----1----1----0----1-----0----3----1------------(1)0(3)--0----|
G|--0----0----2----0----2-----0----0----0---------------0-----0----|
D|--2----3----2----2----3-----2----2----2---------------0-----0----|
A|--3----3----0----2----3-----3----3----3---------------2-----2----|
E|-----------------0------------------------------------3-----3----|

Intro cont...

e|-000-0~---------------000-0~----------------0000000-0000000------|
B|-111-1~--------1------111-1~----------------1111111-0000000------|
G|-000-0~----------0----000-0~----0------0----2222222-0000000------|
D|-222-3~----3-------3--222-3~------3------3--2222222-2222222------|
A|-333-3~--3---3--------333-3~--3------3------0000000-2222222------|
E|----------------------------------------------------0000000------|

e|-000-000-0~------------------------------------------------------|
B|-111-111-1~------------------------------------------------------|
G|-000-000-0~------------------------------------------------------|
D|-222-333-2~------------------------------------------------------|
A|-333-333-3~------------------------------------------------------|
E|-----------------------------------------------------------------|


C     C2				 C    C2
	It started off as something new. Just met, lost my breath (though I)
		 C/Am			       C    C2
barely knew you. And I'm sad to say I still do.
C     C2                           C     C2                         C/Am
	I wanna talk, I wanna laugh,      please tell me everything.
				      C C2 C
Please tell me what it is that you're thinking.


Chorus:

C     C2          Am  Em              C	      C2   Am  Em
Maybe it's     to obvious. Guess it's hard to open up,
         C          C2           Am
(and) to give it my best. I feel this cause you're
Em     C C2 C
losing intrest.


C     C2                                  C         C2
	I'll wait for summer days and the moonlight rays.
			   C/Am
When the time will be just right. I hope I want see fade
               C              C2  C
that beautiful smile that you made.
G						C        C2 C
I'll make you talk, I'll make you laugh, I'll do anything.
G				           C       C3 C4
Just please tell me what it is that you're thinking.


C     C2          Am  Em              C	      C2   Am  Em
Maybe it's     to obvious. Guess it's hard to open up,
         C          C2           Am
(and) to give it my best. I feel this cause you're
Em     C C2 C
losing intrest.


Maybe lyrics for interlude:

But until that day, please dont walk away, no.
I'll show you everything, just let me in, let it begin.
And then when you listen, you'll hear nothing, and that's
ok, cause there'll be nothing left to say.


C     C2          Am  Em              C	      C2   Am  Em
Maybe it's     to obvious. Guess it's hard to open up,
         C          C2           Am
(and) to give it my best. I feel this cause you're
Em     C C2 C
losing intrest.

Outro:

Repeat the chorus without lyrics (change rythim a bit)
then play...(C  C2  C) a few times then play this tab...

e|-------------------------------------------------------------------0~-|
B|-------------------------------------------------------------------1~-|
G|-------------------------------------------------------------------0~-|
D|-2-2-2-3-3-3-3-3-3-3-3-3-3-3-3-3--2-2-2-3-3-3-3-3-3-3-3-3-3-3-3-3--2~-|
A|-3-3-3-3-3-3-3-3-3-3-3-3-3-3-3-3--3-3-3-3-3-3-3-3-3-3-3-3-3-3-3-3--3~-|
E|----------------------------------------------------------------------|

Sing this slowly during outro tab...

Do you hear me?... Good... cause I've said all there's to be said...
Tap to rate this tab
 
# A B C D E F G H I J K L M N O P Q R S T U V W X Y Z