Nocturnal Depression - Nostalgia tab

-------------------------------------------------------------------------------
			    Nostalgia - Nocturnal Depression
-------------------------------------------------------------------------------
Tabbed by: Demon.Spawn
Email:

Tuning: E-A-D-G-B-E


e|----------------4-----------------------------------|
B|-5----5----5--------7---5---4---4---4---7---5---4---|
G|----------------------------------------------------|
D|----------------------------------------------------| //repeat as often as
A|---4----4----4----4---4---4-------------------------| //you want
E|------------------------------4---4---4---4---4---4-|
Tap to rate this tab
 
# A B C D E F G H I J K L M N O P Q R S T U V W X Y Z