Song name
# A B C D E F G H I J K L M N O P Q R S T U V W X Y Z

Nofx - Bob tab

Band: NOFX
Song: Bob
Album: White Trash Two Heebs and a Bean
Tabbed by: Tyler Z.
Email: kid81992@juno.com
Tuning: Standard

Each chord is played 16 times, palm muted:
e|------------------------------|
B|------------------------------|
G|---5-------------5------------|
D|---5------3------5------3-----| 
A|---3------3------3------3-----|
E|----------1-------------1-----|
     x      x      x      x

e|---------------------------|
B|---------------------------|
G|---5-------------5---------|
D|---5------3------5------3--|  
A|---3------3------3------3--|
E|----------1-------------1--|

Each chord played 16 times, listen for speed:
e|---------------------------|
B|---------------------------|
G|---5-------------5---------|
D|---5------3------5------3--|  
A|---3------3------3------3--|
E|----------1-------------1--|

e|--------------------------|
B|--5--5--8--8--5--5--6--6--|
G|--5--5--7--7--5--5--5--5--|    PLAY 
D|--------------------------|   6 TIMES
A|--------------------------| EVEN THROUGHOUT
E|--------------------------|  TRUMPET SOLO

e|----------------------------------------------------------------------|
B|----------------------------------------------------------------------|
G|---5-------------5------9---9-9-9-9-9-9-9-9-9--10-10-10-10-10-10-10---|
D|---5------3------5------9---9-9-9-9-9-9-9-9-9--10-10-10-10-10-10-10---| 
A|---3------3------3------7---7-7-7-7-7-7-7-7-7--8--8--8--8--8--8--8----|
E|----------1-----------------------------------------------------------|

e|--------------------------------------------------------|
B|--------------------------------------------------------|
G|---5-5-5-5-5-5--3-3-3-3-3-3-----------------------------|
D|---5-5-5-5-5-5--3-3-3-3-3-3--3-3-3-3-3-3--5-5-5-5-5-5---|  PLAY
A|---3-3-3-3-3-3--1-1-1-1-1-1--3-3-3-3-3-3--5-5-5-5-5-5---| 4 TIMES
E|-----------------------------1-1-1-1-1-1--3-3-3-3-3-3---|

e|----------------------------------------------------------------|
B|----------------------------------------------------------------|
G|----------------------------------------------------------------|  PLAY
D|---5--5-5-5-5-5--3-3-3-3--2-2-----------------------------------| 2 TIMES
A|-------------------------------3--3-3-3-3-3-3--5-5-5-5--5-5-5---|
E|----------------------------------------------------------------|

e|--------------------------|       |-----------|
B|--5--5--8--8--5--5--6--6--|       |----5------|
G|--5--5--7--7--5--5--5--5--| PLAY  |----5------|
D|--------------------------|2 TIMES|-----------|
A|--------------------------|       |-----------|
E|--------------------------|       |-----------|
                                     SECOND TIME
                                        ONLY


KEY
x = Palm Mute




Tap to rate this tab
# A B C D E F G H I J K L M N O P Q R S T U V W X Y Z