Guitaretab - guitar tabs
Song name
# A B C D E F G H I J K L M N O P Q R S T U V W X Y Z

Nofx - Drop The World tab

This isn't my work.  The original author is credited at the end.  I posted this because 
wanted it and it's pretty much perfect.
Thanks.
[ Tab from: http://www.guitaretab.com/n/nofx/13510.html ]
DROP THE WORLD by NOFX. Album : Heavy petting zoo (1996)
One of the few great-feeling songs on HPZ.
A=Melvin   B=El Hefe   A&B=both
:
# intro #A !fade in with volume! %=pause
E%%%%%%%%%%%%%%%%%%%|0:17-----------|
B%%%%%%%%%%%%%%%%%%%----------------|
G%%%%%%%%%%%%%%%%%%%5-------7-------|
D%%%%%%%%%%%%%%%%%%%5-------7-------|
A%%%%%%%%%%%%%%%%%%%3-------5-------|
E%%%%%%%%%%%%%%%%%%%----------------|
# intro #B !palm-muted!                                             >
E------------------------------------------------------------------->
B------------------------------------------------------------------->
G---44444444------------------------5555555544444444---------------->
D-----------777777775555555577775555----------------7777777755557777>
A------------------------------------------------------------------->
E------------------------------------------------------------------->
>introB
>-----------------------------------------------------|
>---------8-------8-------8-------8--------8-------8--|
>------7---7---77--7---7---7---77--7----7---7---77--7-|
>---555-55--555--5--555-55--555--5---777-77--777--7--7|
>-----------------------------------------------------|
>-----------------------------------------------------|
:
# verse #A&B *=play 6X #=play 3X
E---------------------------------------------------------------------------|
B----------------------------------------------------*-----*-----*-----*----|
G----*-----*-----*-----#--#--*-----*-----*-----#--#-5-----5-----7-----7-----|
D--12----10----12----10--9--9-----7-----5-----7--5--5-----5-----7-----7-----|
A--10----10----10----10-10--7-----7-----7-----7--7--3-----3-----5-----5-----|
E---------------------------------------------------------------------------|
:
# bridge #A&B !play all notes X6!
E---------------------------|
B---------------------------|
G---------------------------|
D--12----10----12----10-----|    > Then play A&BverseA&BX2.
A--10----10----10----10-----|
E---------------------------|
:
# pre-chorus #A&B !play all notes X6!
E---------------------------|
B---------------------------|
G---------7-----5-----7-----|
D---2-----7-----5-----7-----|
A---2-----5-----3-----5-----|
E---0-----------------------|
:
# chorus #A +=play 12X
E------------------------------------------------------------|
B------------------------------------+-------+-------+-------|
G----+-------+-------+-------+------5-------5-------7-------7|
D---5-------5-------7-------7-------5-------5-------7-------7|
A---5-------5-------7-------7-------3-------3-------5-------5|
E---3-------3-------5-------5--------------------------------|
# chorus #B *=play 6X #=play 3X
E------------------------------------------------------------|
B----*---*---*--#-#--*---*---*--#-#--*---*---*---*---*---*---|
G--16--14--12--141217--16--14--121412--12--12--12--14--14--14|
D------------------------------------------------------------|
A--14--12--10--121015--14--12--101210--10--10--10--12--12--12|
E------------------------------------------------------------|
:
Then play A&BverseA&BX3 and A&Bpre-chorusA&B.
>>>>>>>>>>>>>>>>>to next page...
:
DROP THE WORLD
:
# chorus2 #A +=play 12X %=pause
E%%%%%%%%%%%%%%%%%%%%%%%%%%%%%%%%%-----------------|
B%%%%%%%%%%%%%%%%%%%%%%%%%%%%%%%%%-----------------|
G%%%%%%%%%%%%%%%%%%%%%%%%%%%%%%%%%---+-------+-----|
D%%%%%%%%%%%%%%%%%%%%%%%%%%%%%%%%%\\3-------3------|
A%%%%%%%%%%%%%%%%%%%%%%%%%%%%%%%%%\\3-------3------|
E%%%%%%%%%%%%%%%%%%%%%%%%%%%%%%%%%\\1-------1------|
# chorus2 #B !play all chords 24X!
E--------------------------------------------------|
B----*---------------*---------------*-------------|
G--16--------------15--------------14--------------|
D--------------------------------------------------|
A--14--------------13--------------12--------------|
E--------------------------------------------------|
:
Then play BintroB (!A plays 1st chord of chorus!).
Cool!
Tabbed by Jussi Heinonen 22.08.1998.                    (revised 17.3.2006.)
Related for Drop The World tab
Advertisement will be closed in 10 seconds