Song name
# A B C D E F G H I J K L M N O P Q R S T U V W X Y Z

Nofx - Fleas tab

----------------------------------------------------------------------------
			     Fleas - Nofx
----------------------------------------------------------------------------
Tabbed by: L.A.M.F. 77'


Tuning: Standard

  Intro: Guitar 2
   
   (clean): 1x       |   (distorted)  
e|-------------------|------3--3-------------------------------------------|
B|-------------------|------------3----------------------------------------|
G|-------------------|-----------------------------------------------------|
D|---5---3---2--2--2-|--5------------5---2--2--2--2---5--5--5--5--5--5--5--|
A|---5---3---3--3--3-|--5----------------3--3--3--3------------------------|
E|-------------------|--3-----------------------------3--3--3--3--3--3--3--|

  Guitar 1

e|-------------------------------------------------------------------------|
B|-------------------------------------------------------------------------|
G|--------------------------------7---7---7---5---5---5---9---9---9--------|
D|---3---2-----------------------------------------------------------------|
A|-----------3-------3---2--------5---5---5---3---3---3---7---7---7--------|
E|---------------3-----------3---------------------------------------------|

  Verse:

e|-----------------------------------------------------------|
B|-----------------------------------------------------------|
G|---5-------7---5----5-------7---5----5---7-------7---9-----|
D|---5---5---7---5----5---5---7---5----5---7---5---7---9-----|
A|---3---5---5---3----3---5---5---3----3---5---5---5---7-----|
E|-------3----------------3--------------------3-------------|

  Chorus:

e|-----------------------------|
B|-----------------------------|
G|-------5------------5--------|
D|---3---5---5----3---5---5----|
A|---3---3---5----3---3---5----|
E|---1-------3----1-------3----|

  Bridge: Guitar 1
e|----------------------------------|
B|----------------------------------|
G|----------------------------------|
D|-----3---2-------------3---2------|
A|-------------3-----------------3--|
E|-----------------3----------------|

  Guitar 2:

e|--------------------------------------|
B|--------------------------------------|
G|--------------------------------------|
D|---5---5---5---5---5---5---5---5---5--|
A|--------------------------------------|
E|---3---3---3---3---3---3---3---3---3--|



  Verse:

e|------------------------------|
B|------------------------------|
G|---5---7-------7---9----------|
D|---5---7---5---7---9----------|
A|---3---5---5---5---7----------|
E|-----------3------------------|

  Chorus:

e|-----------------------------|
B|-----------------------------|
G|-------5------------5--------|
D|---3---5---5----3---5---5----|
A|---3---3---5----3---3---5----|
E|---1-------3----1-------3----|

  Outro:

e|---------------------------------------|
B|---------------------------------------|
G|-------10---9---5---4---5---9------7---|
D|---5-----------------------------------|
A|-------8----7---3---2---3---7------5---|
E|---3-----------------------------------|






Tap to rate this tab
 
# A B C D E F G H I J K L M N O P Q R S T U V W X Y Z