Song name
# A B C D E F G H I J K L M N O P Q R S T U V W X Y Z

Nofx - Go Your Own Way tab

Band: NOFX
Song: Go your own way
Album: S&M Airlines
Transcriber: Robert Johnstone
Guitarists: Gtr 1-Al Bino, Gtr 2-Eric Melvin
Standard tuning

Again I haven't been able to find tabs for any NOFX songs on S&M
This doesn't sound like nofx at all it sounds more like a greenday song but greenday suck now!
All the punk bands are going main stream now and to all the main stream punk band YOU SUCK!

E-------------------------------------------------------------------------|
B------------ (--------------) -------------------------------------------|
G-9-9-9-9----9-9-9-9-9-9--------------- repeat section with---------------|            )
D-9-9-9-9----9-9-9-9-9-9--------------------------------------------------|
A-7-7-7-7----7-7-7-7-7-7--------------------------------------------------|
E-------------------------------------------------------------------------|
  *  *  *  *             * *

E----------------------------------------------|
B----------------------------------------------|
G--9-9-9-9-9-9-9-9-9-9-9-9-9-9-----------------|
D--9-9-9-9-9-9-9-9-9-9-9-9-9-9-----------------|
A--7-7-7-7-7-7-7-7-7-7-7-7-7-7-----------------|
E----------------------------------------------|
                          *

E--------------------------------------------------------------------------------|
B--------------------------------------------------------------------------------|
G--9-9-9-9-9-9-9-9-9-9---6-6-6-6-6-6-6-6-6-6--4-4-4-4-4-4-4-4-4-4----------------|
D--9-9-9-9-9-9-9-9-9-9---6-6-6-6-6-6-6-6-6-6--4-4-4-4-4-4-4-4-4-4----------------|
A--7-7-7-7-7-7-7-7-7-7---4-4-4-4-4-4-4-4-4-4--2-2-2-2-2-2-2-2-2-2----------------|
E--------------------------------------------------------------------------------|

Gtr 1 plays the solo and gtr 2 plays this
E-------------------------------------------------------------------------------|
B-------------------------------------------------------------------------------|
G--9-9-9-9-9-9-9-9-9-9---6-6-6-6-6-6-6-6-6-6--4-4-4-4-4-4-4-4-4-4---------------|
D--9-9-9-9-9-9-9-9-9-9---6-6-6-6-6-6-6-6-6-6--4-4-4-4-4-4-4-4-4-4---------------|
A--7-7-7-7-7-7-7-7-7-7---4-4-4-4-4-4-4-4-4-4--2-2-2-2-2-2-2-2-2-2---------------|
E-------------------------------------------------------------------------------|
   * * * * * * * * * * * *    * * * * * * * * * * * *  * * * * * * * * * * * *

E--------------------------------------------------------------------------------|
B--------------------------------------------------------------------------------|
G--9-9-9-9-9-9-9-9-9-9---6-6-6-6-6-6-6-6-6-6--4-4-4-4-4-4-4-4-4-4----------------|
D--9-9-9-9-9-9-9-9-9-9---6-6-6-6-6-6-6-6-6-6--4-4-4-4-4-4-4-4-4-4----------------|
A--7-7-7-7-7-7-7-7-7-7---4-4-4-4-4-4-4-4-4-4--2-2-2-2-2-2-2-2-2-2----------------|
E--------------------------------------------------------------------------------|

Sorry about the missing solo but heres the almost full version
Tap to rate this tab
 
# A B C D E F G H I J K L M N O P Q R S T U V W X Y Z