Song name
# A B C D E F G H I J K L M N O P Q R S T U V W X Y Z

Nofx - Six Pack Girls tab

# intro #       ^=pause
E-----------------------------------------------|
B-----------------------------------------------|
G---9-^---^-9-9-^---^-9-^---^-9---9---9-9-9-9---|
D---9-^---^-9-9-^---^-9-^---^-9---9---9-9-9-9---|
A---7-^---^-7-7-^---^-7-^---^-7---7---7-7-7-7---|
E-----------------------------------------------|
:
# verse # X6
E----------------------------|
B----------------------------|
G---9--9-12-12-7---7-11-11---|
D---9--9-12-12-7---7-11-11---|
A---7--7-10-10-5---5--9--9---|
E----------------------------|
:
# chorus #
E--------------------------------------------------------------|
B--------------------------------------------------------------|
G---9--12-9-9---9-9--12-9-9---9-9--12-9-9---9-11----12-11-12---|
D---9--12-9-9---9-9--12-9-9---9-9--12-9-9---9-11----12-11-12---|
A---7--10-7-7---7-7--10-7-7---7-7--10-7-7---7--9----10--9-10---|
E--------------------------------------------------------------|
:
Then play verse and chorus.
:
# outro #
E------------------------|
B------------------------|
G---9--9-12-12-9-9-9-9---|
D---9--9-12-12-9-9-9-9---|
A---7--7-10-10-7-7-7-7---|
E------------------------|
:
35 seconds full of power!
Tap to rate this tab
 
# A B C D E F G H I J K L M N O P Q R S T U V W X Y Z