Guitaretab - guitar tabs
Song name
# A B C D E F G H I J K L M N O P Q R S T U V W X Y Z
Home / N / Nonpoint / Hive tab

Nonpoint - Hive tab

Intro              x3
|--------------------|----------------|
|--------------------|----------------|
|--------------------|----------------|
|-1p00-01p00-01p01p0-|-1p00-01p00-01--|
|-1p00-01p00-01p01p0-|-1p00-01p00-01--|
|-1p00-01p00-01p01p0-|-1p00-01p00-01--|

                 x3
|------------------|------------------|
|------------------|------------------|
|------------------|------------3-----|
|-1p0-0-1p0-0-0h1--|-1p0-0-1p0-03-2-0-|
|-1p0-0-1p0-0-0h1--|-1p0-0-1p0-01-2-0-|
|-1p0-0-1p0-0-0h1--|-1p0-0-1p0-0--2-0-|

Verse 1            x3
|--------------------|------------------| x2
|--------------------|------------------|
|------------------3-|------------3-----|
|-0h222p02--02-02-03-|-0h222p02-003-2-0-|
|-0h222p02--02-02-01-|-0h222p02-001-2-0-|
|-0h222p02--02-02-0--|-0h222p02-00--2-0-|

|------------------|------------------|
|------------------|------------------|
|------------3-----|-*5*--------3-----|
|-*5*--------3-2-0-|-*5*--------3-2-0-|
|------------1-2-0-|------------1-2-0-|
|--------------2-0-|--------------2-0-|

Chorus             x3
|--------------------|------------------| x2
|--------------------|------------------|
|------------------3-|------------3-----|
|-0h222p02--02-02-03-|-0h222p02-003-2-0-|
|-0h222p02--02-02-01-|-0h222p02-001-2-0-|
|-0h222p02--02-02-0--|-0h222p02-00--2-0-|

Post-Chorus        x3
|--------------------|-------------------|
|--------------------|-------------------|
|--------------------|-------------------|
|-1p00-01p00-01p01p0-|-1p00-01p0-4/5-5-6-|
|-1p00-01p00-01p01p0-|-1p00-01p0---------|
|-1p00-01p00-01p01p0-|-1p00-01p0---------|

Bridge 1            x4              x4
|---------------------|---------------|----------|
|---------------------|---------------|----------|
|---------------------|---------------|----------|
|-0h66-0h66-0h555-333-|-0-66-5-55-3-3-|-3-0--3-0-|
|-0h66-0h66-0h555-333-|-0-66-5-55-3-3-|-3-0--3-0-|
|-0h66-0h66-0h555-333-|-0-66-5-55-3-3-|-3-0--3-0-|

Verse 2            x3
|--------------------|------------------|
|--------------------|------------------|
|------------------3-|------------3-----|
|-0h222p02--02-02-03-|-0h222p02-003-2-0-|
|-0h222p02--02-02-01-|-0h222p02-001-2-0-|
|-0h222p02--02-02-0--|-0h222p02-00--2-0-|
[ Tab from: http://www.guitaretab.com/n/nonpoint/127424.html ]
|------------------|------------------|
|------------------|------------------|
|------------3-----|-*5*--------3-----|
|-*5*--------3-2-0-|-*5*--------3-2-0-|
|------------1-2-0-|------------1-2-0-|
|--------------2-0-|--------------2-0-|

Chorus
Post-Chorus

Bridge 2            x4              x3
|---------------------|---------------|--------------|
|---------------------|---------------|--------------|
|---------------------|---------------|--------------|
|-0h66-0h66-0h555-333-|-0-66-5-55-3-3-|-0-66-555-333-|
|-0h66-0h66-0h555-333-|-0-66-5-55-3-3-|-0-66-555-333-|
|-0h66-0h66-0h555-333-|-0-66-5-55-3-3-|-0-66-555-333-|

                                             x2
|---------------|--------------|---------------|----------|
|---------------|--------------|---------------|----------|
|---------------|--------------|---------------|----------|
|-0-66-5-55-3-3-|-0-66-555-333-|-0-66-5-55-3-3-|-3-0--3-0-|
|-0-66-5-55-3-3-|-0-66-555-333-|-0-66-5-55-3-3-|-3-0--3-0-|
|-0-66-5-55-3-3-|-0-66-555-333-|-0-66-5-55-3-3-|-3-0--3-0-|

Outro
Gtr 1                           x4                 x2
|--------------|------------------|------------------|
|--------------|------------------|------------------|
|--------------|------------------|------------------|
|--------------|-0-00-765-353-353-|-0000-765-353-353-|
|--------------|-0-00-765-353-353-|-0000-765-353-353-|
|-3-5-3--3-5-3-|-0-00-765-353-353-|-0000-765-353-353-|

Gtr 2
|-3/5\3/5\3-3-3/5\3-3-0h3-0-|-3/5\3/5\3-3-3/5\3-3-3/8\5-| x2
|---------------------------|---------------------------|
|---------------------------|---------------------------|
|---------------------------|---------------------------|
|---------------------------|---------------------------|
|---------------------------|---------------------------|

|------5\3-3-3/5\3-3-0h3-0-|-3/5\3/5\3-3-3/5\3-3-3/8\5-| x2
|--------------------------|---------------------------|
|--------------------------|---------------------------|
|-0000---------------------|---------------------------|
|-0000---------------------|---------------------------|
|-0000---------------------|---------------------------|

Gtr 1                            (slower)         x2
|--------------------------------|------------------|
|-*7*7*7*7*7*7*7*7*7*7*----------|------------------|
|--------------------------------|------------------|
|-----------------------565--x-3-|-0-00-765-353-353-|
|-----------------------565--x---|-0-00-765-353-353-|
|-----------------------565--x---|-0-00-765-353-353-|

(slower)
|------------------------|
|------------------------|
|----*7*-----------------|
|-00---*7*-765-353-35-1~-|
|-00-------765-353-35-1~-|
|-00-------765-353-35-1~-|
Related for Hive tab
Advertisement will be closed in 10 seconds