Song name
# A B C D E F G H I J K L M N O P Q R S T U V W X Y Z

Nonpoint - In The Air Tonight tab

Nonpoint
"in the air tonight"
(Phil Collins cover)

Tabbed By: Cinnimini_*AR*

Tuning:  Down 1/2 step

INTRO
(1 downstroke per word)
   I.......coming......tonight.....oh....
   And.....moment.......life.......oh....
Eb-----------------------------------------|
Bb--6-------5-----------3----------5-------|
Gb--7-------5-----------3----------5-------|
Db--7-------5-----------3----------5-------|
Ab--5-------3-----------1----------3-------|
Eb-----------------------------------------|

Verse:
      (Listen to the song to get strumming pattern
   When........drownin.....I........hand..
Eb---1----------0--------------------0-------|
Bb---3----------1-----------3--------1-------|
Gb---2----------0-----------3--------0-------|
Db--------------2-----------3--------2-------|
Ab--------------3-----------1--------3-------|
Eb-------------------------------------------|

Chrorus:
 The same chords are repeated
throughout the whole song

       Dm         C       Bb      C
Eb---1-------|--0------|------|--0----|
Bb---3----6--|--1---5--|--3---|--1--5-|
Gb---2----7--|--0---5--|--3---|--0--5-|
Db--------7--|--2---5--|--3---|--2--5-|
Ab--------5--|--3---3--|--1---|--3--3-|
Eb-----------|---------|------|-------|

  These Chords Are the Chorus(In order)

Just repeat  Dm, C, Bb, C  for the next verse
And repeat that again for the chorus after that

Yes, a very simple song...

ENJOY
Tap to rate this tab
 
# A B C D E F G H I J K L M N O P Q R S T U V W X Y Z