Song name
# A B C D E F G H I J K L M N O P Q R S T U V W X Y Z

Nonpoint - What A Day tab

Gtr I (C G C F A D) - 'Clean gtr. w/stereo chorus,reverb,slight phaser perhaps'
Gtr II (C G C F A D) - 'Heavy Distortion Gtr.'
Gtr III (C G C F) - 'Bass'
Gtr IV (E A D G B E) - 'Pickscrapes'


 Intro
  Moderate Rock Q=96
  N.(D)
 4/4
  Gtr I
  Q  S   +S  Q     E  S   +S  S S
|---------------------------------|
|-------------------------------3-|
|------------5--------------------|
|----7b8r(7)-------7--5b6r(5)-----|
|------------------0----------3---|
|-0------------(0)----------------|
  H            +E  Q.


  Q   S   +S  Q  E  S E.      Q   S   +S  Q  E  S   +S  S S
|---------------------------|-------------------------------|
|---------------------------|-----------------------------3-|
|-------------5-------------|-------------5-----------------|
|-----7b8r(7)----7--5-------|-----7b8r(7)----7--5b6r(5)-----|
|----------------0----3b3.5-|----------------0----------3---|
|-0-0-----------------------|-0-0---------------------------|
  E H            Q.           E H            Q.


                                Q=
  Q   S   +S  Q  E  E.     +S
|-------------------------------||
|-------------------------------||
|-------------5-----------------||
|-----7b8r(7)-------5b5.5==(5)r-||
|----------------0--------------||
|-0-0---------------------------||
  E H            Q.


 1st Verse
 97
  Q   S   +S  Q  E  S   +S  S S   Q   S   +S  Q  E  S E.
|-------------------------------|---------------------------|
|-----------------------------3-|---------------------------|
|-------------5-----------------|-------------5-------------|
|-----7b8r(7)----7--5b6r(5)-----|-----7b8r(7)----7--5-------|
|----------------0----------3---|----------------0----3b3.5-|
|-0-0---------------------------|-0-0-----------------------|
  E H            Q.               E H            Q.


  Q   S   +S  Q  E  S   +S  S S   Q   S   +S  Q  E  E.     +S
|-------------------------------|-------------------------------|
|-----------------------------3-|-------------------------------|
|-------------5-----------------|-------------5-----------------|
|-----7b8r(7)----7--5b6r(5)-----|-----7b8r(7)-------5b5.5==(5)r-|
|----------------0----------3---|----------------0--------------|
|-0-0---------------------------|-0-0---------------------------|
| E H            Q.               E H            Q.
|
| Gtr III
| W                               W
|-------------------------------|-------------------------------|
|-------------------------------|-------------------------------|
|-------------------------------|-------------------------------|
|-------------------------------|-------------------------------|


  Q   S   +S  Q  E  S   +S  S S
|--------------------------------|
|-----------------------------3--|
|-------------5------------------|
|-----7b8r(7)----7--5b6r(5)------|
|----------------0----------3----|
|-0-0----------------------------|
| E H            Q.
|
| Q   E       Q  E  S    S  S S
|--------------------------------|
|--------------------------------|
|-----5---------------------3h5--|
|-0-----------6--0--5h===6-------|


  Q   S   +S  Q  E  S E.          Q   S   +S  Q  E  S   +S  S S
|-------------------------------|-------------------------------|
|-------------------------------|-----------------------------3-|
|-------------5-----------------|-------------5-----------------|
|-----7b8r(7)----7--5-----------|-----7b8r(7)----7--5b6r(5)-----|
|----------------0----3b3.5-----|----------------0----------3---|
|-0-0---------------------------|-0-0---------------------------|
| E H            Q.               E H            Q.
|
| Q   E       H             +E    Q   E       Q  E  S    S  S S
|-------------------------------|-------------------------------|
|-------------------------------|-------------------------------|
|-----5-------------------------|-----5---------------------3h5-|
|-0-----------6-------------(6)-|-0-----------6--0--5h===6------|


  Q   S   +S  Q      E  E.     +S
|-----------------------------------||
|-----------------------------------||
|-------------5---------------------||
|-----7b8r(7)-----------5b5.5==(5)r-||
|--------------------0--------------||
|-0-0-------------------------------||
| E H                Q.
|
| E E E       E +H
|-----------------------------------||
|-----------------------------------||
|-----5-----------------------------||
|-0-0---------6-(6)/----------------||


 Pre-Chorus
  D5
  Gtr II
  E E S   +S  E.     +S   E S   +S  S S
|---------------------------------------|
|---------------------------------------|
|-------------5b5.5==(5)r-----------5h7-|
|-0-0-7b8r(7)-------------0-5b6r(5)-----|
|-0-0---------------------0-------------|
|-0-0---------------------0-------------|
|
| E E E       Q           E S    S  S S
|---------------------------------------|
|---------------------------------------|
|-----5-----------------------------3h5-|
|-0-0---------6-----------0-5h===6------|


  E E S   +S  E.     +S   E S E.          E E S   +S  E.     +S   E S   +S  S S
|---------------------------------------|---------------------------------------|
|---------------------------------------|---------------------------------------|
|-------------5b5.5==(5)r---------------|-------------5b5.5==(5)r-----------5h7-|
|-0-0-7b8r(7)-------------0-5-----------|-0-0-7b8r(7)-------------0-5b6r(5)-----|
|-0-0---------------------0---3b3.5-----|-0-0---------------------0-------------|
|-0-0---------------------0-------------|-0-0---------------------0-------------|
|
| E E E       H                     +E    E E E       Q           E S    S  S S
|---------------------------------------|---------------------------------------|
|---------------------------------------|---------------------------------------|
|-----5---------------------------------|-----5-----------------------------3h5-|
|-0-0---------6---------------------(6)-|-0-0---------6-----------0-5h===6------|


                                     Chorus
                                  $
                                      BbA5  D5  Bb5   C5          BbD5
  E E S   +S   E  S S S S S S S S     E E s E s T +T  S S S T +T  S E
|---------------------------------||----------------------------------|
|---------------------------------||o---------------------------------|
|--------------5------------------||------------3-(3)s5-5-5-5-(5)s3-7-|
|-0-0-7b8r(7)-----6-6-6-6-6-7-7-7-||--8-7---0---3-(3)s5-5-5-5-(5)s3-7-|
|-0-0-----------------------------||o-8-7-0-0-0-1-(1)s3-3-3-3-(3)s1-5-|
|-0-0-----------------------------||--8-7-0-0-0-----------------------|
|
| E E E       +E  S S S S S S S S     E E s E s T +T  S S S T +T  S E
|---------------------------------||----------------------------------|
|---------------------------------||o---------------------------------|
|---5-----------------------------||o-----------1-(1)s3-3-3-3-(3)s1-5-|
|-0---6-------(6)-6-6-6-6-6-7-7-7-||--8-7-0-0-0-----------------------|


  BbA5  D5  F5    G5          F5
  E E s E s T +T  S S S T +T  S S S
|-------------------------------------|
|-------------------------------------|
|-------------------------------------|
|-8-7---0---3-(3)s5-5-5-5-(5)s3-3-3---|
|-8-7-0-0-0-3-(3)s5-5-5-5-(5)s3-3-3---|
|-8-7-0-0-0-3-(3)s5-5-5-5-(5)s3-3-3---|
|
| E E s E s T +T  S S S T +T  S S S
|-------------------------------------|
|-------------------------------------|
|-------------------------------------|
|-8-7-0-0-0-3-(3)s5-5-5-5-(5)s3-3-3---|


                                   1.
  BbA5  D5  Bb5   C5          BbD5  BbA5  D5    G5 F5
  E E s E s T +T  S S S T +T  S E   E E s E s a Q  Q
|---------------------------------|--------------------||
|---------------------------------|-------------------o||
|-----------3-(3)s5-5-5-5-(5)s3-7-|--------------------||
|-8-7---0---3-(3)s5-5-5-5-(5)s3-7-|-8-7---0---3h5--3---||
|-8-7-0-0-0-1-(1)s3-3-3-3-(3)s1-5-|-8-7-0-0-0-3h5--3--o||
|-8-7-0-0-0-----------------------|-8-7-0-0-0-3h5--3---||
|
| E E s E s T +T  S S S T +T  S E   E E s E s a Q  Q
|---------------------------------|--------------------||
|---------------------------------|-------------------o||
|-----------1-(1)s3-3-3-3-(3)s1-5-|-------------------o||
|-8-7-0-0-0-----------------------|-8-7-0-0-0-3h5--3---||


  2.
                       To Coda
  BbA5      Bb5           C5
  E E s E s S S S S S +T  T S S
|-------------------------------|
|-------------------------------|
|-----------3-3-3-3-3-(3)s5-5-5-|
|-8-7---0---3-3-3-3-3-(3)s5-5-5-|
|-8-7-0-0-0-1-1-1-1-1-(1)s3-3-3-|
|-8-7-0-0-0---------------------|
|
| E E s E s S S S S S +T  T S S
|-------------------------------|
|-------------------------------|
|-----------1-1-1-1-1-(1)s3-3-3-|
|-8-7-0-0-0---------------------|


   Bridge
                                                         1.,2.,3.
    Ab    G         C        G5    Ab5         G5
    S +S  S  +S   S  S +S  S T +T  S S S T +T  S S +S     W     4x
||------------------------------------------------------|-------||
||o-9-(9)-8--(8)\-x-------------------------------------|------o||
||----------------x-\5-(5)-5----------------------------|-------||
||--6-(6)-5--(5)\-x----------5-(5)s6-6-6-6-(6)s5-5-(5)\-|-------||
||o-----------------\3-(3)-3-5-(5)s6-6-6-6-(6)s5-5-(5)\-|------o||
||---------------------------5-(5)s6-6-6-6-(6)s5-5-(5)\-|-------||
|
|   E     e.         E     S T +T  S S S T +T  S S +S     W     4x
||------------------------------------------------------|-------||
||o-----------------------------------------------------|------o||
||o------------------3-----3----------------------------|------o||
||--6-----5------------------5-(5)s6-6-6-6-(6)s5-5-(5)\-|-------||


  4.
                                   N.(D)
  Gtr IV                        Gtr I
  TPTP  TPTP  TPTP  TPTP
  X X S X X S X X S X X H    E.    Q  E H        +E     Q   E Q  Q.
|-------------------------------||--------------------|------------------|
|-------------------------------||----1---------------|-----1----3-------|
|-xsx---xsx---xsx---xsx---------||------1--------(1)--|-------1--0-------|
|-xsx---xsx---xsx---xsx---------||--------------------|------------------|
|-xsx---xsx---xsx---xsx---------||--------------------|------------------|
|-------------------------------||-0------------------|-0----------------|
|
| W                                Q  E Q  E S S  S S   E E E H      +E
|-------------------------------||--------------------|------------------|
|-------------------------------||--------------------|------------------|
|-------------------------------||----5-----------3h5-|---5--------------|
|-------------------------------||-0----6--0-5h6------|-0---7-6------(6)-|


  Q  E H        +E     Q   E Q       Q.
|--------------------|---------------------------||
|----1---------------|-----1---------3-----------||
|------1--------(1)--|-------1-------0-----------||
|--------------------|---------------------------||
|--------------------|---------------------------||
|-0------------------|-0-------------------------||
|
|                                         |-3--|
| Q  E Q  E S S  S S   E E E E  S S  S  S E E  E
|--------------------|---------------------------||
|--------------------|---------------------------||
|----5-----------3h5-|---5--------5-----6---7--8-||
|-0----6--0-5h6------|-0---7-6-/7---/8----9---10-||


 2nd Verse
  Q  E H        +E     Q   E Q  Q.
|--------------------|-------------------|
|----1---------------|-----1----3--------|
|------1--------(1)--|-------1--0--------|
|--------------------|-------------------|
|--------------------|-------------------|
|-0------------------|-0-----------------|
|
| Q  E Q  E S S  S S   E E E H      +E
|--------------------|-------------------|
|--------------------|-------------------|
|----5-----------3h5-|---5---------------|
|-0----6--0-5h6------|-0---7-6------(6)--|


  Q  E H        +E     Q   E Q      Q.
|--------------------|-------------------|
|----1---------------|-----1--------3----|
|------1--------(1)--|-------1------0----|
|--------------------|-------------------|
|--------------------|-------------------|
|-0------------------|-0-----------------|
|
| Q  E Q  E S S  S S   E E E E +H
|--------------------|-------------------|
|--------------------|-------------------|
|----5-----------3h5-|-----5-------------|
|-0----6--0-5h6------|-0-0---6-(6)/------|


  Q  S   +S  Q     E  S   +S  S S   Q   S   +S  Q  E  S E.
|---------------------------------|--------------------------------|
|-------------------------------3-|--------------------------------|
|------------5--------------------|-------------5------------------|
|----7b8r(7)-------7--5b6r(5)-----|-----7b8r(7)----7--5------------|
|------------------0----------3---|----------------0----3b3.5------|
|-0------------(0)----------------|-0-0----------------------------|
| H            +E  Q.               E H            Q.
|
| Q  E       Q     E  S    S  S S   E E E       H             +E
|---------------------------------|--------------------------------|
|---------------------------------|--------------------------------|
|----5------------------------3h5-|---5----------------------------|
|-0----------6-----0--5h===6------|-0---7-------6-------------(6)--|


  Q   S   +S  Q  E  S   +S  S S
|-------------------------------|
|-----------------------------3-|
|-------------5-----------------|
|-----7b8r(7)----7--5b6r(5)-----|
|----------------0----------3---|
|-0-0---------------------------|
| E H            Q.
|
| Q   E       Q  E  S    S  S S
|-------------------------------|
|-------------------------------|
|-----5---------------------3h5-|
|-0-----------6--0--5h===6------|


                                      Pre-Chorus II
                                       D5          Ab5
                                    Gtr II
  Q   S   +S  Q  E  E.         +S      E E S   +S  E      +Q    Q
|-----------------------------------||-----------------------------|
|-----------------------------------||-----------------------------|
|-------------5---------------------||-------------5b5.5==(5)r-----|
|-----7b8r(7)-------5b5.5======(5)r-||-0-0-7b8r(7)-----------------|
|----------------0------------------||-0-0-------------------------|
|-0-0-------------------------------||-0-0-------------------------|
| E H            Q.
|
| E E E       H            +E          Q   E       Q.           Q
|-----------------------------------||-----------------------------|
|-----------------------------------||-------------6---------------|
|---5-------------------------------||-----5-------6---------------|
|-0---7-------6------------(6)------||-0-----------6---------------|


  D5         Ab5               D5         Ab5
  Q  S   +S  E      +Q    Q    Q  S   +S  E      +Q    Q
|----------------------------|----------------------------|
|----------------------------|----------------------------|
|------------5b5.5==(5)r-----|------------5b5.5==(5)r-----|
|-0--7b8r(7)-----------------|-0--7b8r(7)-----------------|
|-0--------------------------|-0--------------------------|
|-0--------------------------|-0--------------------------|
|
| Q  E       Q.           Q    Q  E       Q.           Q
|----------------------------|----------------------------|
|------------6---------------|------------6---------------|
|----5-------6---------------|----5-------6---------------|
|-0----------6---------------|-0----------6---------------|


                              D.S. al Coda
  D5
  E E S   +S  S      +S   S S S S S S S S
|-------------------------------------------||
|-------------------------------------------||
|-------------5b5.5==(5)r-------------------||
|-0-0-7b8r(7)-------------6-6-6-6-6-7-7-7---||
|-0-0---------------------------------------||
|-0-0---------------------------------------||
|
| E E E       E           S S S S S S S S
|-------------------------------------------||
|-------------------------------------------||
|---5---------------------------------------||
|-0---7-------6-----------6-6-6-6-6-7-7-7---||


   Bridge II
    &
    Ab    G         C        G5    Ab5         G5
    S +S  S  +S   S  S +S  S T +T  S S S T +T  S S +S     W     3x
||------------------------------------------------------|-------||
||o-9-(9)-8--(8)\-x-------------------------------------|------o||
||----------------x-\5-(5)-5----------------------------|-------||
||--6-(6)-5--(5)\-x----------5-(5)s6-6-6-6-(6)s5-5-(5)\-|-------||
||o-----------------\3-(3)-3-5-(5)s6-6-6-6-(6)s5-5-(5)\-|------o||
||---------------------------5-(5)s6-6-6-6-(6)s5-5-(5)\-|-------||
|
|   E     e.         E     S T +T  S S S T +T  S S +S     W     3x
||------------------------------------------------------|-------||
||o-----------------------------------------------------|------o||
||o------------------3-----3----------------------------|------o||
||--6-----5------------------5-(5)s6-6-6-6-(6)s5-5-(5)\-|-------||


  Ab    G         C       G5    Ab5         G5
  S +S  S  +S   S S +S  S T +T  S S S T +T  S S  S
|---------------------------------------------------|
|-9-(9)-8--(8)\-x-----------------------------------|
|---------------x-5-(5)-5---------------------x--x--|
|-6-(6)-5--(5)\-x---------5-(5)s6-6-6-6-(6)s5-x--x--|
|-----------------3-(3)-3-5-(5)s6-6-6-6-(6)s5-x--x--|
|-------------------------5-(5)s6-6-6-6-(6)s5-x--x--|
|
| E     e.        E     S T +T  S S S T +T  S S +S
|---------------------------------------------------|
|---------------------------------------------------|
|-----------------3-----3---------------------------|
|-6-----5-----------------5-(5)s6-6-6-6-(6)s5-x-(x)-|


        Ab5         G5          Ab5         G5
  T +T  S S S T +T  S S S T +T  S S S T +T  S S S
|--------------------------------------------------|
|--------------------------------------------------|
|--------------------------------------------------|
|-5-(5)s6-6-6-6-(6)s5-5-5-5-(5)s6-6-6-6-(6)s5-5-5--|
|-5-(5)s6-6-6-6-(6)s5-5-5-5-(5)s6-6-6-6-(6)s5-5-5--|
|-5-(5)s6-6-6-6-(6)s5-5-5-5-(5)s6-6-6-6-(6)s5-5-5--|
|
| T +T  S S S T +T  S S S T +T  S S S T +T  S S S
|--------------------------------------------------|
|--------------------------------------------------|
|--------------------------------------------------|
|-5-(5)s6-6-6-6-(6)s5-5-5-5-(5)s6-6-6-6-(6)s5-5-5--|


        Ab5         G5          Ab5         G5
  T +T  S S S T +T  S S S T +T  S S S T +T  S S S
|-------------------------------------------------|
|-------------------------8-(8)s9-9-9-9-(9)s8-8-8-|
|-7-(7)s8-8-8-8-(8)s7-7-7-7-(7)s8-8-8-8-(8)s7-7-7-|
|-5-(5)s6-6-6-6-(6)s5-5-5-5-(5)s6-6-6-6-(6)s5-5-5-|
|-5-(5)s6-6-6-6-(6)s5-5-5-5-(5)s6-6-6-6-(6)s5-5-5-|
|-5-(5)s6-6-6-6-(6)s5-5-5-5-(5)s6-6-6-6-(6)s5-5-5-|
|
| T +T  S S S T +T  S S S T +T  S S S T +T  S S S
|-------------------------------------------------|
|-------------------------------------------------|
|-------------------------------------------------|
|-5-(5)s6-6-6-6-(6)s5-5-5-5-(5)s6-6-6-6-(6)s5-5-5-|


  Bb5                        C5
   S  S  S  S  S  S  S  S  S  S  S  S  S  S  S  +S
|-----------------------------------------------------||
|-----------------------------------------------------||
|-10-10-10-10-10-10-10-10-10--------------------------||
|--8--8--8--8--8--8--8--8--8-10-10-10-10-10-10-(10)\--||
|--8--8--8--8--8--8--8--8--8-10-10-10-10-10-10-(10)\--||
|--8--8--8--8--8--8--8--8--8-10-10-10-10-10-10-(10)\--||
|
|  S  S  S  S  S  S  S  S  S  S  E     Q
|-----------------------------------------------------||
|-----------------------------------------------------||
|-----------------------------------------------------||
|--8--8--8--8--8--8--8--8--8--------------------------||


 Out-Chorus
  BbA5  D5  Bb5   C5          BbD5  BbA5  D5  F5    G5          F5
  E E s E s T +T  S S S T +T  S E   E E s E s T +T  S S S T +T  S E
|---------------------------------|---------------------------------|
|---------------------------------|---------------------------------|
|-----------3-(3)s5-5-5-5-(5)s3-7-|---------------------------------|
|-8-7---0---3-(3)s5-5-5-5-(5)s3-7-|-8-7---0---3-(3)s5-5-5-5-(5)s3-3-|
|-8-7-0-0-0-1-(1)s3-3-3-3-(3)s1-5-|-8-7-0-0-0-3-(3)s5-5-5-5-(5)s3-3-|
|-8-7-0-0-0-----------------------|-8-7-0-0-0-3-(3)s5-5-5-5-(5)s3-3-|
|
| E E s E s T +T  S S S T +T  S E   E E s E s T +T  S S S T +T  S E
|---------------------------------|---------------------------------|
|---------------------------------|---------------------------------|
|-----------1-(1)s3-3-3-3-(3)s1-5-|---------------------------------|
|-8-7-0-0-0-----------------------|-8-7-0-0-0-3-(3)s5-5-5-5-(5)s3-3-|


  BbA5  D5  Bb5   C5          BbD5  BbA5  D5    G5 F5
  E E s E s T +T  S S S T +T  S E   E E s E s a Q  Q
|---------------------------------|-------------------|
|---------------------------------|-------------------|
|-----------3-(3)s5-5-5-5-(5)s3-7-|-------------------|
|-8-7---0---3-(3)s5-5-5-5-(5)s3-7-|-8-7---0---3h5--3--|
|-8-7-0-0-0-1-(1)s3-3-3-3-(3)s1-5-|-8-7-0-0-0-3h5--3--|
|-8-7-0-0-0-----------------------|-8-7-0-0-0-3h5--3--|
|
| E E s E s T +T  S S S T +T  S E   E E s E s a Q  Q
|---------------------------------|-------------------|
|---------------------------------|-------------------|
|-----------1-(1)s3-3-3-3-(3)s1-5-|-------------------|
|-8-7-0-0-0-----------------------|-8-7-0-0-0-3h5--3--|


  Bb A    D   Bb5   C5          Bb5     Bb A    D   F5    G5          F5
   E  E S E S T +T  S S S T +T  S S S    E  E S E S T +T  S S S T +T  S S S
|-------------------------------------|-------------------------------------|
|-11-10-x-----------------------------|-11-10-x-----------------------------|
|-------x-7-7-3-(3)s5-5-5-5-(5)s3-----|-------x-7-7-------------------------|
|--8--7-x-----3-(3)s5-5-5-5-(5)s3-x-x-|--8--7-x-----3-(3)s5-5-5-5-(5)s3-3-3-|
|---------5-5-1-(1)s3-3-3-3-(3)s1-x-x-|---------5-5-3-(3)s5-5-5-5-(5)s3-3-3-|
|---------------------------------x-x-|-------------3-(3)s5-5-5-5-(5)s3-3-3-|
|
|  E  E s E s T +T  S S S T +T  S S S    E  E s E s T +T  S S S T +T  S E
|-------------------------------------|-------------------------------------|
|-------------------------------------|-------------------------------------|
|-------------1-(1)s3-3-3-3-(3)s1-x-x-|-------------------------------------|
|--8--7-0-0-0-------------------------|--8--7-0-0-0-3-(3)s5-5-5-5-(5)s3-3---|


  Bb A    D   Bb5   C5          Bb5     Bb A    D   F5    G5 F5
   E  E S E S T +T  S S S T +T  S S S    E  E S E S T +T  E. E S S
|-------------------------------------|----------------------------|
|-11-10-x-----------------------------|-11-10-x--------------------|
|-------x-7-7-3-(3)s5-5-5-5-(5)s3-----|-------x-7-7----------------|
|--8--7-x-----3-(3)s5-5-5-5-(5)s3-x-x-|--8--7-x-----3-(3)s5--3-x-x-|
|---------5-5-1-(1)s3-3-3-3-(3)s1-x-x-|---------5-5-3-(3)s5--3-x-x-|
|---------------------------------x-x-|-------------3-(3)s5--3-x-x-|
|
|  E  E s E s T +T  S S S T +T  S S S    E  E s E s T +T  E. E S S
|-------------------------------------|----------------------------|
|-------------------------------------|----------------------------|
|-------------1-(1)s3-3-3-3-(3)s1-x-x-|----------------------------|
|--8--7-0-0-0-------------------------|--8--7-0-0-0-3-(3)s5--3-x-x-|


  G5    Ab5         G5            Ab5         G5          Ab5         G5
 2/4                       4/4
  T +T  S S S T +T  S S S   T +T  S S S T +T  S S S T +T  S S S T +T  S S S
|-------------------------|--------------------------------------------------|
|-------------------------|--------------------------------------------------|
|-------------------------|--------------------------------------------------|
|-5-(5)s6-6-6-6-(6)s5-x-x-|-5-(5)s6-6-6-6-(6)s5-5-5-5-(5)s6-6-6-6-(6)s5-5-5--|
|-5-(5)s6-6-6-6-(6)s5-x-x-|-5-(5)s6-6-6-6-(6)s5-5-5-5-(5)s6-6-6-6-(6)s5-5-5--|
|-5-(5)s6-6-6-6-(6)s5-x-x-|-5-(5)s6-6-6-6-(6)s5-5-5-5-(5)s6-6-6-6-(6)s5-5-5--|
|
| T +T  S S S T +T  S S S   T +T  S S S T +T  S S S T +T  S S S T +T  S S S
|-------------------------|--------------------------------------------------|
|-------------------------|--------------------------------------------------|
|-------------------------|--------------------------------------------------|
|-5-(5)s6-6-6-6-(6)s5-x-x-|-5-(5)s6-6-6-6-(6)s5-5-5-5-(5)s6-6-6-6-(6)s5-5-5--|


        Ab5         G5          Ab5         G5
  T +T  S S S T +T  S S S T +T  S S S T +T  S S S
|-------------------------------------------------|
|-8-(8)s9-9-9-9-(9)s8-8-8-8-(8)s9-9-9-9-(9)s8-8-8-|
|-7-(7)s8-8-8-8-(8)s7-7-7-7-(7)s8-8-8-8-(8)s7-7-7-|
|-5-(5)s6-6-6-6-(6)s5-5-5-5-(5)s6-6-6-6-(6)s5-5-5-|
|-5-(5)s6-6-6-6-(6)s5-5-5-5-(5)s6-6-6-6-(6)s5-5-5-|
|-5-(5)s6-6-6-6-(6)s5-5-5-5-(5)s6-6-6-6-(6)s5-5-5-|
|
| T +T  S S S T +T  S S S T +T  S S S T +T  S S S
|-------------------------------------------------|
|-------------------------------------------------|
|-------------------------------------------------|
|-5-(5)s6-6-6-6-(6)s5-5-5-5-(5)s6-6-6-6-(6)s5-5-5-|


  Bb5                        C5                   Bb5A5  D5    G5 F5
   S  S  S  S  S  S  S  S  S  S  S  S  S  S  E     E E s E s a Q  Q
|-----------------------------------------------|----------------------*|
|-----------------------------------------------|----------------------*|
|-10-10-10-10-10-10-10-10-10--------------------|----------------------*|
|--8--8--8--8--8--8--8--8--8-10-10-10-10-10-10\-|-/8-7---0---3s5--3----*|
|--8--8--8--8--8--8--8--8--8-10-10-10-10-10-10\-|-/8-7-0-0-0-3s5--3----*|
|--8--8--8--8--8--8--8--8--8-10-10-10-10-10-10\-|-/8-7-0-0-0-3s5--3----*|
|
|  S  S  S  S  S  S  S  S  S  S  E     Q           E E s E s a Q  Q
|-----------------------------------------------|----------------------*|
|-----------------------------------------------|----------------------*|
|-----------------------------------------------|----------------------*|
|--8--8--8--8--8--8--8--8--8--------------------|-/8-7-0-0-0-3s5--3----*|




--------------------------------------------------------------------------------


Duration Legend
---------------
W - whole; H - half; Q - quarter; E - 8th; S - 16th; T - 32nd; X - 64th; a - acciaccatura
+ - note tied to previous; . - note dotted; .. - note double dotted
Uncapitalized letters represent notes that are staccato (1/2 duration)
Irregular groupings are notated above the duration line
Duration letters will always appear directly above the note/fret number it represents the
duration for.  Duration letters with no fret number below them represent rests.  Multi-
bar rests are notated in the form Wxn, where n is the number of bars to rest for.  Low
melody durations appear below the staff

Tablature Legend
----------------
 h   - hammer-on
 p   - pull-off
 b   - bend
 pb  - pre-bend
 r   - bend release (if no number after the r, then release immediately)
 /\  - slide into or out of (from/to "nowhere")
 s   - legato slide
 S   - shift slide
 - natural harmonic
[n]  - artificial harmonic
n(n) - tapped harmonic
 ~   - vibrato
 tr  - trill
 T   - tap
 TP  - trem. picking
 PM  - palm muting
\n/  - tremolo bar dip; n = amount to dip
 \n  - tremolo bar down
 n/  - tremolo bar up
/n\  - tremolo bar inverted dip
 =   - hold bend; also acts as connecting device for hammers/pulls
 <> - volume swell (louder/softer)
 x   - on rhythm slash represents muted slash
 o   - on rhythm slash represents single note slash

Misc Legend
-----------
 |  - bar
||  - double bar
||o - repeat start
o|| - repeat end
*|  - double bar (ending)
 :  - bar (freetime)
 $  - Segno
 &  - Coda
Tempo markers -  = BPM(8/16=s8/s16), where s8 = swing 8ths, s16 = swing 16ths


Tap to rate this tab
 
# A B C D E F G H I J K L M N O P Q R S T U V W X Y Z