Song name
# A B C D E F G H I J K L M N O P Q R S T U V W X Y Z

Nonpoint - Alive And Kicking tab

Nonpoint
Alive and Kicking
tabbed by infinitelazerdog
Dropped C Tuning
CGCFAd

I got tired of waiting for someone to tab this song out so I decided to try it myself.  
not the best tabber and this song is rather difficult so any comments or help with parts 
the song would be much appreciated.  Maybe I can at least get somebody else motivated on this song.

Verse 1: (Clean Delay)
d|---------------------------------------||
A|--2-3-----3-5-------3p2-----------2p0--||
F|---------------------------------------||
C|---------------------------------------||
G|---------------------------------------||
C|---------------------------------------||

Pre chorus: (Distorted-Awesome Part)
d|----------------------------------------------------------------------||
A|----------------------------------------------------------------------||
F|----------------------------5--5p3p2----------------------------------||
C|--0-0--0--0-0-0-------3-5/7----------0-0--0--0-0-10---1-1-1-2-2-3-3---||
G|--0-0--0--0-0-0---3-5----------------0-0--0--0-0-10---1-1-1-2-2-3-3---||
C|--0-0--0--0-0-0----------------------0-0--0--0-0-10---1-1-1-2-2-3-3---||

d|----------------------------------------------------------------------||
A|----------------------------6-6p4p3-----------------------------------||
F|------------------------5/7-------------------------------------------||
C|--0-0--0--0-0-0-------3--------------0-0--0--0-0-10---1-1-1-2-2-3-3---||
G|--0-0--0--0-0-0---3-5----------------0-0--0--0-0-10---1-1-1-2-2-3-3---||
C|--0-0--0--0-0-0----------------------0-0--0--0-0-10---1-1-1-2-2-3-3---||

Chorus: (Rhythm and number of strokes not shown)
d|-----------------------------------------------------------------||
A|-----------------------------------------------------------------||
F|--10-10-10-10-10-10-10-10----------------------------------------||
C|--x--x--x--x--x--x--x--x----3-3-3-3-3-/-7-7-7-7-7-7--------------||
G|--8--8--8--8--8--8--8--8----3-3-3-3-3-/-7-7-7-7-7-7--------------||
C|--0--0--0--0--0--0--0--0----3-3-3-3-3-/-7-7-7-7-7-7--------------||

d|-----------------------------------------------------------------||
A|-----------------------------------------------------------------||
F|-----------------------------------------------------------------||
C|--0-0-0-5-5-5-7-7-7-3-3-3--/-7-7-7-7-7-3-3-3-0-0-0---------------||
G|--0-0-0-3-3-3-7-7-7-3-3-3--/-7-7-7-7-7-3-3-3-0-0-0---------------||
C|--0-0-0-------7-7-7-3-3-3--/-7-7-7-7-7-3-3-3-0-0-0---------------||

Bridge:
d|-------------------------------||
A|-------------------------------||
F|-------------------------------||
C|----------------------1--2--3--||
G|----------------------1--2--3--||
C|--10-5-7-10-5-7-10/---1--2--3--||
Tap to rate this tab
# A B C D E F G H I J K L M N O P Q R S T U V W X Y Z