Song name
# A B C D E F G H I J K L M N O P Q R S T U V W X Y Z

Noori - Nishaan tab

Tab Details:
Name: Abubakar Siddique a.k.a. ABY
If you enjoy them, do comment me at matric2005@hotmail.com

This tab is suitable for an Acoustic Guitar

Intro
|--------------------------------------||
|--------------------------------------||
|---99--\-12-12-12-\-14-14-x----777----||  x2
|---99--\-12-12-12-\-14-14-x----777----|| 
|---77--\-10-10-10-\-12-12-x----555----||
|--------------------------------------|| 


Then heavy guitar, play this very fast or play E5 G5 A5 D5

|-0-0--3-3--5-5--x-x-------------------||
|-0-0--3-3--5-5--3-3-------------------||
|-0-0--4-4--6-6--4-4-------------------||  x4
|-2-2--5-5--7-7--5-5-------------------|| 
|-2-2--5-5--7-7--5-5-------------------||
|-0-0--3-3--5-5--x-x-------------------|| 

When the heavy guitar plays two times,  a solo is played on behind. 

|--5-5-3-5-5---3--3-5-3-5-3-7-5-3---5-5-3-5-5---3--3-5-3-5-3-7-5-3-0-||
|------------5--------------------------------5--------------------0-||
|--------------------------------------------------------------------||  
|--------------------------------------------------------------------|| 
|--------------------------------------------------------------------||
|--------------------------------------------------------------------||


Verse: Raaton Ke .......
|--------------------------||
|--------------------------||
|--------------------------||
|--------5-4-5-7 5 4 5-----||
|------3-------------------||
|--------------------------||

Khamoshi Galion.........
|--------------------------||
|--------------------------||
|--------------------------||
|--------5-4-5-7 5 4 5-----||
|------5-------------------||
|--------------------------||

Saaye bhi..............
|--------------------------||
|--------------------------||
|--------------------------||
|--------5-4-5-7 5 4 5-----||
|------3---------------7---||
|--------------------------||

Raahon ke..............
|--------------------------||
|--------------------------||
|--------------------------||
|--------5-4-5-7 5 4 5-----||
|------3-------------------||
|--------------------------||

Duur andheron..........

|--------------------------||
|--------------------------||
|--------------------------||
|--------5-4-5-7 5 4 5-----||
|------5-------------------||
|--------------------------||


Rang sab ..............
|--------------------------||
|--------------------------||
|--------------------------||
|--------5-4-5-7 5 4 5-----||
|------3-------------------||
|--------------------------||

Aa gaye ho phir yahan
|---0--------0-------------||
|-----0--------0-----------||
|----------2---------------||
|-2------------------------||
|--------------------------||
|--------------------------|| 

Ho gaye ho ashnaa
|---0--------0-------------||
|-----0--------0-----------||
|-0--------2---------------||
|--------------------------||
|--------------------------||
|--------------------------|| 

Roshni ke des main 
|---0--------0-------------||
|-----0--------0-----------||
|-2--------0---------------||
|--------------------------||
|--------------------------||
|--------------------------||

Tum bhi dekho ge kayi ....(contd)
|---0--------0-------------||
|-----0--------0-----------||
|-2--------0---------------||
|--------------------------||
|--------------------------||
|--------------------------||

...(contd)jalway
|-2-------------------------||
|-2-------------------------||
|-3-------------------------||  x10
|-4-------------------------|| 
|-4-------------------------||
|-2-------------------------||

Then heavy guitar, play this very fast or play E5 G5 A5 D5

Choo lo gay sitare to zamana tumhen dekhe ga...........
|-0-0--3-3--5-5--x-x-------------------||
|-0-0--3-3--5-5--3-3-------------------||
|-0-0--4-4--6-6--4-4-------------------||  x4
|-2-2--5-5--7-7--5-5-------------------|| 
|-2-2--5-5--7-7--5-5-------------------||
|-0-0--3-3--5-5--x-x-------------------|| 

Likho jo nayi daastan
|-x-x-x-x-x--x-x-x-x-x---------||
|-1-1-1-1-1--3-3-3-3-3---------||
|-2-2-2-2-2--4-4-4-4-4---------||  
|-3-3-3-3-3--5-5-5-5-5---------|| 
|-3-3-3-3-3--5-5-5-5-5---------||
|-x-x-x-x-x--x-x-x-x-x---------||

Mite ge yahin phir nishaan
|-x-x-x-x-x--x-x-x-x-x---------||
|-1-1-1-1-1--3-3-3-3-3---------||
|-2-2-2-2-2--4-4-4-4-4---------||  Then play Em
|-3-3-3-3-3--5-5-5-5-5---------|| 
|-3-3-3-3-3--5-5-5-5-5---------||
|-x-x-x-x-x--x-x-x-x-x---------||  

Bhoole se bhi wo naa jage
|--------------------------||
|--------------------------||
|--------------------------||
|--------5-4-5-7 5 4 5-----||
|------3-------------------||
|--------------------------||

Saye se apne woh bhagen
|--------------------------||
|--------------------------||
|--------------------------||
|--------5-4-5-7 5 4 5-----||
|------5-------------------||
|--------------------------||

Jal nahin payen ge phir diye
|--------------------------||
|--------------------------||
|--------------------------||
|--------5-4-5-7 5 4 5-----||
|------3---------------7---||
|--------------------------||

Duur anjani is dagar pe
|--------------------------||
|--------------------------||
|--------------------------||
|--------5-4-5-7 5 4 5-----||
|------3-------------------||
|--------------------------||

Ik andheri rahguzar pe
|--------------------------||
|--------------------------||
|--------------------------||
|--------5-4-5-7 5 4 5-----||
|------5-------------------||
|--------------------------||

Aas ki kirno se jal ke
|--------------------------||
|--------------------------||
|--------------------------||
|--------5-4-5-7 5 4 5-----||
|------3-------------------||
|--------------------------||

Chal diye ho tum kahan
|---0--------0-------------||
|-----0--------0-----------||
|----------2---------------||
|-2------------------------||
|--------------------------||
|--------------------------|| 

Dhoondte kis ke nishaan
|---0--------0-------------||
|-----0--------0-----------||
|-0--------2---------------||
|--------------------------||
|--------------------------||
|--------------------------|| 

Shor ke bazaar mein
|---0--------0-------------||
|-----0--------0-----------||
|-2--------0---------------||
|--------------------------||
|--------------------------||
|--------------------------||

Hosh naa aye kabhi phir .....(contd)
|---0--------0-------------||
|-----0--------0-----------||
|-2--------0---------------||
|--------------------------||
|--------------------------||
|--------------------------||

...........(contd) tumhein
|-2-------------------------||
|-2-------------------------||
|-3-------------------------||  x10
|-4-------------------------|| 
|-4-------------------------||
|-2-------------------------||

Then heavy guitar, play this very fast or play E5 G5 A5 D5

Choo lo gay sitare to zamana tumhen dekhe ga...........
|-0-0--3-3--5-5--x-x-------------------||
|-0-0--3-3--5-5--3-3-------------------||
|-0-0--4-4--6-6--4-4-------------------||  x4
|-2-2--5-5--7-7--5-5-------------------|| 
|-2-2--5-5--7-7--5-5-------------------||
|-0-0--3-3--5-5--x-x-------------------|| 

Bhula do ye saara jahan
|-x-x-x-x-x--x-x-x-x-x---------||
|-1-1-1-1-1--3-3-3-3-3---------||
|-2-2-2-2-2--4-4-4-4-4---------||  
|-3-3-3-3-3--5-5-5-5-5---------|| 
|-3-3-3-3-3--5-5-5-5-5---------||
|-x-x-x-x-x--x-x-x-x-x---------||


Likho ik nayi dastaan
|-x-x-x-x-x--x-x-x-x-x---------||
|-1-1-1-1-1--3-3-3-3-3---------||
|-2-2-2-2-2--4-4-4-4-4---------||  
|-3-3-3-3-3--5-5-5-5-5---------|| 
|-3-3-3-3-3--5-5-5-5-5---------||
|-x-x-x-x-x--x-x-x-x-x---------||

Mite ge yahin phir nishaan
|-x-x-x-x-x--x-x-x-x-x---------||
|-1-1-1-1-1--3-3-3-3-3---------||
|-2-2-2-2-2--4-4-4-4-4---------|| Then play Em 
|-3-3-3-3-3--5-5-5-5-5---------|| 
|-3-3-3-3-3--5-5-5-5-5---------||
|-x-x-x-x-x--x-x-x-x-x---------||

Then the drum solo and then in Ali Hamza's voice

Aaaaaa.........
|---0--------2-------------||
|-----0--------3-----------||
|--------------------------||
|-2--------0---------------||
|--------------------------||
|--------------------------||

Sang hamare chal re
|---0--------2-------------||
|-----0--------3-----------||
|--------------------------||
|-2--------0---------------||
|--------------------------||
|--------------------------||

Aaaaaa.........
|---0--------2-------------||
|-----0--------3-----------||
|--------------------------||
|-2--------0---------------||
|--------------------------||
|--------------------------||

Bas yehi ik pal re
Aaaaaa.........
|---0--------2-------------||
|-----0--------3-----------||
|--------------------------||
|-2--------0---------------||
|--------------------------||
|--------------------------||

Mere saye mein tu chal
|---0--------0-------------||
|-----0--------0-----------||
|-2--------0---------------||
|--------------------------||
|--------------------------||
|--------------------------||

Apni dunya se nikal
|---0--------0-------------||
|-----0--------0-----------||
|-2--------0---------------||
|--------------------------||
|--------------------------||
|--------------------------||

Aaj sab ko chor ke chal re
|---0--------0-------------||
|-----0--------0-----------||
|-2--------0---------------||
|--------------------------||
|--------------------------||
|--------------------------||

Then the solo
|--5-5-3-5-5---3--3-5-3-5-3-7-5-3---5-5-3-5-5---3--3-5-3-5-3-7-5-3--||
|------------5--------------------------------5---------------------||
|-------------------------------------------------------------------||  
|-------------------------------------------------------------------|| 
|-------------------------------------------------------------------||
|-------------------------------------------------------------------||

|-12-12-12-12-12--12--12-12-12-12-12-15-12--12-17-12--12-15-15-15s17-17-17||
|---------------15--15--------------------15--------15--------------------||
|-------------------------------------------------------------------------||
|-------------------------------------------------------------------------||
|-------------------------------------------------------------------------||
|-------------------------------------------------------------------------||

Choona hai sitaron .......
|-x-x-x-x-x--x-x-x-x-x---------||
|-1-1-1-1-1--3-3-3-3-3---------||
|-2-2-2-2-2--4-4-4-4-4---------||  x4 Then play Em
|-3-3-3-3-3--5-5-5-5-5---------|| 
|-3-3-3-3-3--5-5-5-5-5---------||
|-x-x-x-x-x--x-x-x-x-x---------||  

Then the heavy guitar part
E5-E5-F#5-F#5-G5-G5-A5-A5-E5-E5-F#5-F#5-G5-G5-A5-A5

Then
|-0-0-2-2-3-3-5-5-|
|-0-0-2-2-3-3-5-5-|
|-0-0-3-3-4-4-6-6-| x3
|-2-2-4-4-5-5-7-7-|
|-2-2-4-4-5-5-7-7-|
|-0-0-2-2-3-3 5-5-|

Outro.
E5-E5-E5-E5-F#5-F#5-F#5-F#5-G5-G5-G5-G5-A5-A5-A5-A5

If you enjoy them, do comment me at matric2005@hotmail.com




Tap to rate this tab
# A B C D E F G H I J K L M N O P Q R S T U V W X Y Z