Song name
# A B C D E F G H I J K L M N O P Q R S T U V W X Y Z

Norah Jones - Wish I Could tab

Title: Wish I Could
Artist: Norah Jones
Album: Not Too Late
Tabbed by MBInc

My very first try. Feedback/comments are welcome at: mbinc_65@hotmail.com

Setting: E-A-D-G-B-E

Intro
E|-------2-----2----|-------3-----3----|
B|-------3-----3----|-------3-----3----|
G|----2-----2-----2-|----2-----2-----2-|
D|-0----------------|-0----------------|   X 4
A|------------------|------------------|
E|------------------|------------------|

Verse
E|-------2-----2----|-------3-----3----|
B|-------3-----3----|-------3-----3----|
G|----2-----2-----2-|----2-----2-----2-|
D|-0----------------|-0----------------|    X 3
A|------------------|------------------|
E|------------------|------------------|

E|-------7-----7----|-------8-----8----|-------7-----7----|
B|-------8-----8----|-------8-----8----|-------8-----8----|
G|----7-----7-----7-|----7-----7-----7-|----7-----7-----7-|
D|-0----------------|-0----------------|-0----------------|    
A|------------------|------------------|------------------|
E|------------------|------------------|------------------|

E|--------9------9----|-------2-----2----|-------3-----3----|
B|-------10-----10----|-------3-----3----|-------3-----3----|
G|----9------9------9-|----2-----2-----2-|----2-----2-----2-|
D|-0------------------|-0----------------|-0----------------|
A|--------------------|------------------|------------------|
E|--------------------|------------------|------------------|

E|-------5-----5----|-------5-----5----|-------4-----4----|
B|-------6-----6----|-------6-----6----|-------5-----5----|
G|----5-----5-----5-|----5-----5-----5-|----4-----4-----4-|
D|-0----------------|-0----------------|-0----------------|
A|------------------|------------------|------------------|
E|------------------|------------------|------------------|

E|-------4-----4----|-------7-----7----|-------7-----7----|
B|-------5-----5----|-------8-----8----|-------8-----8----|
G|----4-----4-----4-|----7-----7-----7-|----7-----7-----7-|
D|-0----------------|-0----------------|-0----------------|
A|------------------|------------------|------------------|
E|------------------|------------------|------------------|

E|-------2-----2----|-------3-----2----|
B|-------3-----3----|-------3-----3----|
G|----2-----2-----2-|----2-----2-----2-|
D|-0----------------|-0----------------|
A|------------------|------------------|
E|------------------|------------------|

E|-------3-----3----|-------3-----3----|-------2-----2----|
B|-------3-----3----|-------3-----3----|-------3-----3----|
G|----0-----0-----0-|----0-----0-----0-|----2-----2-----2-|
D|------------------|------------------|-0----------------|
A|-3----------------|-2----------------|------------------|
E|------------------|------------------|------------------|

E|-------3-----2----|-------3-----3----|-------3-----3----|
B|-------3-----3----|-------3-----3----|-------3-----3----|
G|----2-----2-----2-|----0-----0-----0-|----0-----0-----0-|
D|-0----------------|------------------|------------------|
A|------------------|-3----------------|-2----------------|
E|------------------|------------------|------------------|

E|-------2-----2----|-------3-----3----|
B|-------3-----3----|-------3-----3----|
G|----2-----2-----2-|----2-----2-----2-|    X 2
D|-0----------------|-0----------------|
A|------------------|------------------|
E|------------------|------------------|

Last Verse:
Verse
E|-------2-----2----|-------3-----3----|
B|-------3-----3----|-------3-----3----|
G|----2-----2-----2-|----2-----2-----2-|
D|-0----------------|-0----------------|    X 3
A|------------------|------------------|
E|------------------|------------------|

E|-------7-----7----|-------8-----8----|-------7-----7----|
B|-------8-----8----|-------8-----8----|-------8-----8----|
G|----7-----7-----7-|----7-----7-----7-|----7-----7-----7-|
D|-0----------------|-0----------------|-0----------------|    
A|------------------|------------------|------------------|
E|------------------|------------------|------------------|

E|--------9------9----|-------2-----2----|-------3-----3----|
B|-------10-----10----|-------3-----3----|-------3-----3----|
G|----9------9------9-|----2-----2-----2-|----2-----2-----2-|
D|-0------------------|-0----------------|-0----------------|
A|--------------------|------------------|------------------|
E|--------------------|------------------|------------------|

E|-------5-----5----|-------5-----5----|-------4-----4----|
B|-------6-----6----|-------6-----6----|-------5-----5----|
G|----5-----5-----5-|----5-----5-----5-|----4-----4-----4-|
D|-0----------------|-0----------------|-0----------------|
A|------------------|------------------|------------------|
E|------------------|------------------|------------------|

E|-------4-----4----|-------7-----7----|-------7-----7----|
B|-------5-----5----|-------8-----8----|-------8-----8----|
G|----4-----4-----4-|----7-----7-----7-|----7-----7-----7-|
D|-0----------------|-0----------------|-0----------------|
A|------------------|------------------|------------------|
E|------------------|------------------|------------------|

E|-------2-----2----|-------3-----2----|
B|-------3-----3----|-------3-----3----|
G|----2-----2-----2-|----2-----2-----2-|
D|-0----------------|-0----------------|
A|------------------|------------------|
E|------------------|------------------|

E|-------3-----3----|-------3-----3----|-------2-----2----|
B|-------3-----3----|-------3-----3----|-------3-----3----|
G|----0-----0-----0-|----0-----0-----0-|----2-----2-----2-|
D|------------------|------------------|-0----------------|
A|-3----------------|-2----------------|------------------|
E|------------------|------------------|------------------|

E|-------3-----2----|-------3-----3----|-------3-----3----|
B|-------3-----3----|-------3-----3----|-------3-----3----|
G|----2-----2-----2-|----0-----0-----0-|----0-----0-----0-|
D|-0----------------|------------------|------------------|
A|------------------|-3----------------|-2----------------|
E|------------------|------------------|------------------|

E|-------2-----2----|-------2-----2----|
B|-------3-----3----|-------3-----3----|
G|----2-----2-----2-|----2-----2-----2-|   
D|-0----------------|-0----------------|
A|------------------|------------------|
E|------------------|------------------|

E|-------3-----3----|-------3-----3----|-------2-----2----|
B|-------3-----3----|-------3-----3----|-------3-----3----|
G|----0-----0-----0-|----0-----0-----0-|----2-----2-----2-|
D|------------------|------------------|-0----------------|
A|-3----------------|-2----------------|------------------|
E|------------------|------------------|------------------|

E|-------3-----2----|-------3-----3----|-------3-----3----|
B|-------3-----3----|-------3-----3----|-------3-----3----|
G|----2-----2-----2-|----0-----0-----0-|----0-----0-----0-|
D|-0----------------|------------------|------------------|
A|------------------|-3----------------|-2----------------|
E|------------------|------------------|------------------|

E|-------2-----2----|-------3-----3----|
B|-------3-----3----|-------3-----3----|
G|----2-----2-----2-|----2-----2-----2-|    X 3
D|-0----------------|-0----------------|
A|------------------|------------------|
E|------------------|------------------|

E|----------2-------|
B|-------3----------|
G|----2-------------|
D|-0----------------|
A|------------------|
E|------------------|

Wish I Could

We met in a place I used to go
Now I just walk by it for show
Can’t bear to go in without you, you know
Wish I could
Wish I could

But Annie is standing in the door
With a look on her face I can’t just ignore
She tells me that her heart is sore
And pulls me in
She pulls me in

She says “Love in the time of war is not fair”
“He was my man but they didn’t care”
“Sent him far away from here”
“No goodbye”
“No goodbye”

I don’t tell her that I once loved you too
Or about all the things we used to do
I kiss her hair and think of you
Walking down
The road you found

We met in a place I used to go
Now I only walk by it for show
Can’t bear to go in without you, you know
Wish I could
Wish I could
Wish I could
Wish I could


Tap to rate this tab
 
# A B C D E F G H I J K L M N O P Q R S T U V W X Y Z