Song name
# A B C D E F G H I J K L M N O P Q R S T U V W X Y Z

Norah Jones - Nightengale tab

Well i used the other tab and found it sorta hard to wrap my fingers around (i have a 
necked classical).  So, this is pretty much his/her version but with a capo on the 2nd 
 I hope he/she doesn't mind me copy/pasting and just adjusting the other tab :)

Capo 2 (chords NOT relative to Capo)

Patterns:

Intro/Verse

  A                                 A/G
e------0---------------------------|-----0---------------------------|
B------------3---------------------|-----------3---------------------|
G------------------0-----0-----0---|-----------------0-----0-----0---|
D----0-----0-----0-----0-----0---0-|---0-----0-----0-----0-----0---0-|
A----------------------------------|---------------------------------|
E--3-----3-----3-----3-----3-------|-1-----1-----1-----1-----1-------|

  A/D                               (Intro only)
e------0----------------------------||----|
B------------3----------------------||-3--|
G------------------0-----0-----0----||-0--|
D----0-----0-----0-----0-----0------||-0--|
A--3-----3-----3-----3-----3--------||----|
E-----------------------------------||-3--|


Chorus/Solo/Outro

  A                                 A/G
e----------------------------------|---------------------------------|
B------3-----3-----3-----3-----3---|-----3-----3-----3-----3-----3---|
G------0-----0-----0-----0-----0---|-----0-----0-----0-----0-----0---|
D----0-----0-----0-----0-----0---0-|---0-----0-----0-----0-----0---0-|
A----------------------------------|---------------------------------|
E--5-----5-----5-----5-----5-------|-1-----1-----1-----1-----1-------|

  A/D                               A
e----------------------------------|---------------------------------|
B------3-----3-----3-----3-----3---|-----3-----3-----3-----3-----3---|
G------0-----0-----0-----0-----0---|-----0-----0-----0-----0-----0---|
D----0-----0-----0-----0-----0---0-|---0-----0-----0-----0-----0---0-|
A--3-----3-----3-----3-----3-------|---------------------------------|
E----------------------------------|-5-----5-----5-----5-----5-------|


(Varied slightly throughout the song)
--------------------------------------------

Intro:
|A   |A/G |A/D |A


        A
Nightingale
           A/G
Sing us a song
      A/D      A
Of a love that once belonged
        A
Nightingale
              A/G
Tell me your tale
          A/D     A
Was your journey far too long?


         A/G                         A/D
Does it seem like I'm looking for an answer
A                  A/G
  To a question I can't ask
A/D                   A
  I don't know which way the feather falls
A/G               A/D
  If I should blow it to the left


        A
Nightingale
           A/G
Sing us a song
      A/D      A
Of a love that once belonged
        A
Nightingale
              A/G
Tell me your tale
          A/D     A
Was your journey far too long?


        A/G                        A/D
All the voices that are spinnin' around me
A                       A/G
  Trying to tell me what to say
A/D             A
  So can I fly right behind you
A/G                 A/D
  And you can take me away


Solo
|A   |A/G |A/D |A   |
|A   |A/G |A/D |A   |
|A   |A/G |A/D |A   |
|A   |A/G |A/D |A   |


        A/G                        A/D
All the voices that are spinnin' around me
A                       A/G
  Trying to tell me what to say
A/D             A
  So can I fly right behind you
A/G                 A/D
  And you can take me away


Outro
|A   |A/G |A/D |A   |
|A   |A/G |A/D |A   |
|A   |A/G |A/D |A   |
|A   |A/G |A/D |A
Tap to rate this tab
# A B C D E F G H I J K L M N O P Q R S T U V W X Y Z