Song name
# A B C D E F G H I J K L M N O P Q R S T U V W X Y Z

Norah Jones - Ill Be Your Baby Tonight tab

----------------------------------------------------------------------------
                  I'll Be Your Baby Tonight - Norah Jones                   
----------------------------------------------------------------------------
Tabbed by: Anon

This is my first tab and it sounds pretty close to me, but it's definately a starting point.

Tuning: Standard

e|-------------------------------------------------------------|
B|--------3-------------3-------------3-------------3----------|
G|------3---3---3-----3---3---3-----3---3---3-----3---3---3----|
D|----3-------3-----3-------3-----3-------3-----3-------3------|
A|--1-------------1-------------1-------------1----------------|
E|-------------------------------------------------------------|

e|-------------------------------------------------------------|
B|--------3-------------3-------------3-------------3----------|
G|------3---3---3-----3---3---3-----3---3---3-----3---3---3----|
D|----3-------3-----3-------3-----3-------3-----3-------3------|
A|--1-------------1-------------1-------------1----------------|
E|-------------------------------------------------------------|
                                                     Close
e|-------------------------------------------------------------------------|
B|--------3-------------3-------------3-------------3-------------4--------|
G|------3---3---3-----3---3---3-----0---0---0-----0---0---0-----3---3---3--|
D|----3-------3-----3-------3-----2-------2-----2-------2-----5-------5----|
A|--1-------------1-------------3-------------3-------------6--------------|
E|-------------------------------------------------------------------------|
  your eyes....                                      'Cause I'll be your...

e|--------1----------------------------------------------------------------|
B|------1---1---1-------3-------------3-------------3-------------3--------|
G|----2-------2-------3---3---3-----3---3---3-----3---3---3-----3---3---3--|
D|--3---------------3-------3-----3-------3-----3-------3-----3-------3----|
A|----------------1-------------1-------------1-------------1--------------|
E|-------------------------------------------------------------------------|
                                         Shut the light...

e|--------------------------------------------------1----------------------|
B|--------3-------------3-------------4-----------1---1---1----------------|
G|------0---0---0-----0---0---0-----3---3---3---2-------2------------------|
D|----2-------2-----2-------2-----5-------5---3----------------------------|
A|--3-------------3-------------6------------------------------------------|
E|-------------------------------------------------------------------------|
                               I'll be your...

e|-------------------------------------------------------------------------|
B|--------3-------------3--4--4-----4-------------4--------------3---------|
G|------3---3---3-----3-----------3---3---3-----3---3---3------3---3---3---|
D|----3-------3-----3-----------5-------5-----5-------5------3-------3-----|
A|--1-------------1-----------6-------------6--------------1---------------|
E|-------------------------------------------------------------------------|
                               Well that mockingbird...        We're gonna..


e|-------------------------------------------------------------------------|
B|--------3-------------3--------------3-------------3---------------------|
G|------3---3---3-----3---3---3------0---0---0-----0---0---0---------------|
D|----3-------3-----3-------3------2-------2-----2-------2-----------------|
A|--1-------------1--------------3-------------3---------------------------|
E|-------------------------------------------------------------------------|
                                 That big fat moon...

e|--------1---------------------1------------------------------------------|
B|------1---1---1---------------1------------------------------------------|
G|----2-------2-----------------2------------------------------------------|
D|--3---------------------------3------------------------------------------|
A|-------------------------------------------------------------------------|
E|-------------------------------------------------------------------------|
 We're gonna...     You won't regret it..     

e|--1--1-------------------------------------------------------------------|
B|--1--1---------3-------------3-------------3-------------3---------------|
G|--2--2-------3---3---3-----3---3---3-----0---0---0-----0---0---0---------|
D|--3--3-----3-------3-----3-------3-----2-------2-----2-------2-----------|
A|---------1-------------1-------------3-------------3---------------------|
E|-------------------------------------------------------------------------|
    Kick your shoes off...              Bring that bottle...

e|---------------------1----------------------|
B|-------4-----------1---1---1----------------|
G|-----3---3---3---2-------2------------------|
D|---5-------5---3----------------------------|
A|-6------------------------------------------|
E|--------------------------------------------|
I'll be your...

************************************

| /   slide up
| \   slide down
| h   hammer-on
| p   pull-off
| ~   vibrato
| +   harmonic
| x   Mute note
| b   Bend
| pb  Pre-bend
| br  Bend release
| pbr Pre-bend release
| brb Bend release bend

************************************
Tap to rate this tab
# A B C D E F G H I J K L M N O P Q R S T U V W X Y Z