Song name
# A B C D E F G H I J K L M N O P Q R S T U V W X Y Z

Norah Jones - Come Away With Me tab

Hallo, my name is Vladimir, Im from Serbia.
I know that this is old song, but I think this solo is pretty correct.



          Norah Jones - Come away with me
          (album: Come Away With Me, 2002)



Tabbed by: Chorbay
Email: tordajav@yahoo.com


Solo starts at 1:45


e|----------------------------------------------------|
B|----------------------------------------------------|
G|----------------------------------4-5-7-7/9\0--0h2--|
D|----------------------5--5h7------------------------|
A|---------3-3-5--7------7----5h7---------------------|
E|---3-3/5--------------------------------------------|


e|----------------------0--------------------------------------3-3--|
B|---3/5\3-1-3/5---5\3-0----5\3-1--1h3-----------------------3------|
G|-------------------------------------0h2-0---0-2/4-2-0-2/4--------|
D|------------------------------------------------------------------|
A|------------------------------------------------------------------|
E|------------------------------------------------------------------|

              (silently)
e|---5p3------------------5-3-3-5-8-3/5-----10/12-13-10/12-11/12----|
B|-------3h5-------------------------------8------------------------|
G|------------------------------------------------------------------|
D|------------0h2-0-0h2-2-------------------------------------------|
A|------------------------------------------------------------------|
E|------------------------------------------------------------------|


e|---10-8-7---------------------8-------7/8-------------------------|
B|---------8-8\5-5--------8/10--10-7/8--7/8-8-7/8-------------------|
G|---------------------10-8/10-----8/9------9-8/9--9\7-5--7/9\0-----|
D|---------------------10-------------------------------------------|
A|------------------------------------------------------------------|
E|------------------------------------------------------------------|


Solo ends at 2:29

| /  slide up
| \  slide down
| h  hammer-on
| p  pull-off

Any comments post me at tordajav@yahoo.com
Tap to rate this tab
# A B C D E F G H I J K L M N O P Q R S T U V W X Y Z