Song name
# A B C D E F G H I J K L M N O P Q R S T U V W X Y Z

Notwist - Pick Up The Phone tab

PICK UP THE PHONE
  the notwist

VERSE

 F#sus4
E-------------------------------------------|
B-------------------------------------------|
G-----4---------4----------4----------4-----|
D-------------------------------------------|
A-------------------------------------------|
E-2-------2--2------2-2---------2--2------2-|

 G#m		      E
E-------------------------------------------|
B-------------------------------------------|
G-----4---------4-----------4---------4-----|
D-------------------------------------------|
A-------------------------------------------|
E-4-------4--4-----4--0--0------0--0------0-|


 F#sus4
E-------------------------------------------|
B-------------------------------------------|
G-----4---------4----------4----------4-----|
D-------------------------------------------|
A-------------------------------------------|
E-2-------2--2------2-2---------2--2------2-|

 G#m		      E
E--------------------------------------------|
B--------------------------------------------|
G-----4---------4--4-------------------------|
D--------------------------------------------|
A--------------------------------------------|
E-4-------4--4--------0--0--0--0--0--0--0--0-|

CHORUS

 E
E-------------------------------------------|
B-------------------------------------------|
G-----4---------4----------4----------4-----|
D-------------------------------------------|
A-------------------------------------------|
E-0-------0--0------0---0-------0--0------0-|

 G#m
E-------------------------------------------|
B-------------------------------------------|
G-----4---------4----------4----------4-----|
D-------------------------------------------|
A-------------------------------------------|
E-4-------4--4------4---4-------4--4------4-|

 B
E-------------------------------------------|
B-------------------------------------------|
G-----4---------4----------4----------4-----|
D-------------------------------------------|
A-2-------2--2------2---2-------2--2------2-|
E-------------------------------------------|

 F#sus4
E-------------------------------------------|
B-------------------------------------------|
G-----4---------4----------4----------4-----|
D-------------------------------------------|
A-------------------------------------------|
E-2-------2--2------2---2-------2--2------2-|

/an
Tap to rate this tab
 
# A B C D E F G H I J K L M N O P Q R S T U V W X Y Z