Song name
# A B C D E F G H I J K L M N O P Q R S T U V W X Y Z

Nouvelle Vague - Dancing With Myself tab

This serves as an arrangement to approximate the style of the song, differing from the 
Billy Idol version.

An x along the unplayed strings is used to symbolises a percussive addition, either 
clicking the string or aggressively sweeping the muted strings, depending on which you prefer.

The chords used throughout the song follow an E, E, A, A, B, B, E, B pattern.

Intro (and quieter part of the song):

  E                               A
e|----------------------------------------------------------------|
B|----9-9-----9-9-----9-9-----9-9-----5-5-----5-5-----5-5-----5-5-|
G|----9-9-----9-9-----9-9-----9-9-----6-6-----6-6-----6-5-----6-6-|
D|9---9---9---9---9---9---9---9-------7-------7-------7-------7---|
A|7---7---7---7---7---7---7---7---7---7---7---7---7---7---7---7---|
E|--------7---7-----------7---7---5---5---0---0---5---5---0---0---|

  B                               E               B
e-----------------------------------------------------------------|
B|----7-7-----7-7-----7-7-----7-7-----9-9-----9-9-----7-7-----7-7-|
G|----8-8-----8-8-----8-8-----8-8-----9-9-----9-9-----8-8-----8-8-|
D|----9-------9-------9-------9---9---9---9---9-------9-------9---|
A|9---9---9---9---9---9---9---9---7---7---7---7---9---9---9---9---|
E|7---7---7---7---7---7---7---7-----------7---7---7---7---7---7---|

Verse/ Rest of the song - w/ bass run :
...floor of To-k-yo...

  E       E      E11      E      A        A       A       A6
e|----x-------x-------x-------4-------x-------x-------x-------5---|
B|----0-------5-------5-------5-------5-------5-------5-------5---|
G|----1-------4-------4---4---4-------6-------6-------6---6---6---|
D|----2---6---6---6---6---6---6-------7---7---7---7---7---4---x---|
A|2---2---7---7---0-----------x---7---7---4---x---7---x-------x---|
E|0---x---4---x-------x---7---x---5---x-------x-------x-------x---|

With the record selection...

  B                      B6      E       E/C#     B       B/A
e|----x-------7-------x-------9-------x-------x-------x-------x---|
B|----7-------7-------7-------9-------9-------9-------7-------7---|
G|----8-------8-------8---8---8-------9---9---9-------8-------8---|
D|----9---9---9---9---9---6---6---9---9---9---9-------9---9---9---|
A|9---9---6---x---9---9-------x---7---7-------x---9---9---0---0---|
E|7---x-------x-------x-------x-------x---9---9---7---7-------x---|

That's basically it. Feel free to post any corrections or comments.
Tap to rate this tab
# A B C D E F G H I J K L M N O P Q R S T U V W X Y Z