Song name
# A B C D E F G H I J K L M N O P Q R S T U V W X Y Z

Nova Prospekt - Shift tab

Tuning Drop C: CGCFAD

pm=palm mute

Intro:
D|------------------------------------------------------------------|
A|------------------------------------------------------------------|
F|------------------------------------------------------------------|
C|------------------------------------------------------------------|
G|-00-00--00-000-0-0-0--00-00-00--00-000-0-0-0-00-------------------|
C|-00-00--00-000-0-0-0--00-00-00--00-000-0-0-0-00-------------------|
Just repeat this throughout the intro

Verse:
D|------------------------------------------------------------------|
A|------------------------------------------------------------------|
F|--------------------101010-----------------------7-9-10-----------|
C|--------------------------8887-------------------x-x-x------------|
G|---00-00--00-000-0--------------00-00--00-000-0--5-7-8------------|
C|---00-00--00-000-0--------------00-00--00-000-0-------------------|

D|------------------------------------------------------------------|
A|------------------------------------------------------------------|
F|------------------------------------------------------------------|
C|------------------------------------------------------------------|
G|-00-00--00-000-0-0-0--00-00-00--00-000-0-0-0-00-------------------|
C|-00-00--00-000-0-0-0--00-00-00--00-000-0-0-0-00-------------------|

Chorus:
D|------------------------------------------------------------------|
A|------------------------------------------------------------------|
F|------------------------------------5555--------------------------|
C|-----pm-----------55555555-33333333-3333-5555---------------------|
G|--00000000--------33333333-11111111------3333---------------------|
C|--00000000--------------------------------------------------------|

D|------------------------------------------------------------------|
A|------------------------------------------------------------------|
F|------------------------------------------------------------------|
C|----pm-----33333333-----------------------------------------------|
G|--00000000-33333333-----------------------------------------------|
C|--00000000--------------------------------------------------------|

Now, everything just repeats
Intro:
D|------------------------------------------------------------------|
A|------------------------------------------------------------------|
F|------------------------------------------------------------------|
C|------------------------------------------------------------------|
G|-00-00--00-000-0-0-0--00-00-00--00-000-0-0-0-00-------------------|
C|-00-00--00-000-0-0-0--00-00-00--00-000-0-0-0-00-------------------|

Verse:
D|------------------------------------------------------------------|
A|------------------------------------------------------------------|
F|--------------------101010-----------------------7-9-10-----------|
C|--------------------------8887-------------------x-x-x------------|
G|---00-00--00-000-0--------------00-00--00-000-0--5-7-8------------|
C|---00-00--00-000-0--------------00-00--00-000-0-------------------|

D|------------------------------------------------------------------|
A|------------------------------------------------------------------|
F|------------------------------------------------------------------|
C|------------------------------------------------------------------|
G|-00-00--00-000-0-0-0--00-00-00--00-000-0-0-0-00-------------------|
C|-00-00--00-000-0-0-0--00-00-00--00-000-0-0-0-00--pm---------------|

Chorus:
D|------------------------------------------------------------------|
A|------------------------------------------------------------------|
F|------------------------------------5555--------------------------|
C|-----pm-----------55555555-33333333-3333-5555---------------------|
G|--00000000--------33333333-11111111------3333---------------------|
C|--00000000--------------------------------------------------------|

D|------------------------------------------------------------------|
A|------------------------------------------------------------------|
F|-------------------------------55555555---------------------------|
C|----pm-----33333333------------33332222---------------------------|
G|--00000000-33333333--55555555-------------------------------------|
C|--00000000-----------88888888-------------------------------------|

D|------------------------------------------------------------------|
A|------------------------------------------------------------------|
F|-------------------------------------------101010-----------------|
C|-------------------------------------------------8887-------------|
G|-00-00--00-000-0-0-0--00-00-00--00-000-0-0-0----------------------|
C|-00-00--00-000-0-0-0--00-00-00--00-000-0-0-0----------------------|

Breakdown:
D|------------------------------------------------------------------|
A|------------------------------------------------------------------|
F|------------------------------------------------------------------|
C|------------------------------------------------------------------|
G|--00-0---0-000-0----000-000---------------------------------------|
C|--00-0-0-0-000-0-0--000-000--x8-----------------------------------|
Tap to rate this tab
# A B C D E F G H I J K L M N O P Q R S T U V W X Y Z