Song name
# A B C D E F G H I J K L M N O P Q R S T U V W X Y Z

Nsync - Girlfriend tab

-------------------------------------------------------------------------------
			     NSYNC - Girlfriend
-------------------------------------------------------------------------------
Tabbed by: Green L
Email: Theolyberth@hotmail.com

Tuning: Standard

        G                      F#
e|------3--3--3----3--3--------2--2--2----2--2-------------------------------|
B|------3--3--3----3--3--------2--2--2----2--2-------------------------------|
G|------4--4--4----4--4--------3--3--3----3--3-------------------------------|
D|------5--5--5----5--5--------4--4--4----4--4-------------------------------|
A|------5--5--5----5--5--------4--4--4----4--4-------------------------------|
E|0--3--3--3--3----3--3--0--2--2--2--2----2--2-------------------------------|

I think that it is correct! It continues like that through the song
Tap to rate this tab
# A B C D E F G H I J K L M N O P Q R S T U V W X Y Z