Guitaretab - guitar tabs
Song name
# A B C D E F G H I J K L M N O P Q R S T U V W X Y Z

Nugent Ted - Stranglehold tab

     Well everybody, this tabs all me and it took FOREVER!! Please... rate and enjoy the 
tabbed right for once.

  Intro
e:--------------------------------------------------------------------------|
B:-------------------------5--5-5h7-7p5-------------------------------------|
G:-------------------------5--5-5h7-7p5-------------------------------------|
D:-5h7-----7-----7---7-----5--5-5h7-7p5-7-----7-----7---7----5-7------------|
A:-0---0-0-0-0-0-0-0-0-0-0--0-----------0-0-0-0-0-0-0-0-0--7-5-7------------|
E:---------------------------------------------------------7----------------|
       m m   m m   m   m m  m             m m   m m   m

e:-----------------------------------------------------------7/9------------|
B:-------------------------5--5-5h7-7p5----------------------8/10-----------|
G:-------------------------5--5-5h7-7p5-------------------------------------|
D:-5h7-----7-----7---7-----5--5-5h7-7p5-7-----7-----7---7-------------------|
A:-0---0-0-0-0-0-0-0-0-0-0--0-----------0-0-0-0-0-0-0-0-0-------------------|
E:--------------------------------------------------------0-----------------|
       m m   m m   m   m m  m             m m   m m   m

e:-----------------------------------------------------------3-3------------|
B:-------------------------5--5-5h7-7p5----------------------3-3------------|
G:-------------------------5--5-5h7-7p5----------------------4-6------------|
D:-5h7-----7-----7---7-----5--5-5h7-7p5-7-----7-----7---7----5-7------------|
A:-0---0-0-0-0-0-0-0-0-0-0--0-----------0-0-0-0-0-0-0-0-0----5-7------------|
E:--------------------------------------------------------0--3-5------------|
       m m   m m   m   m m  m             m m   m m   m

e:--------------------------------------------------------------------------|
B:-------------------------5--5-5h7-7p5-------------------------------------|
G:-------------------------5--5-5h7-7p5-------------------------------------|
D:-5h7-----7-----7---7-----5--5-5h7-7p5-7-7--5-7-7-5-7-7-5-7--2-5-7---------|
A:-0---000-0-000-0-0-0-000--0-----------0-0--0-0-0-0-0-0-0-0--2-5-7---------|
E:------------------------------------------------------------0-3-5---------|
       mmm   mmm   m   mmm  m             m m   m m   m


    Body
e:--------------------------------------------------------------------------|
B:-0h2-0h2-0h2-0h2-5-7--0h2-0h2-0h2-0h2-------------------------------------|
G:-0h2-0h2-0h2-0h2-5-7--0h2-0h2-0h2-0h2-------------------------------------|
D:-0h2-0h2-0h2-0h2-5-7--0h2-0h2-0h2-0h2-2-5-7-------------------------------|
A:-0---0---0---0---3-5--0---0---0---0---2-5-7-------------------------------|
E:--------------------------------------0-3-5-------------------------------|

    "here I come again now baby, like a dog in heat..."
e:--------------------------------------------------------------------------|
B:-0h2-0h2-0h2-0h2-5-7--0h2-0h2-0h2-0h2-------------------------------------|
G:-0h2-0h2-0h2-0h2-5-7--0h2-0h2-0h2-0h2-------------------------------------|
D:-0h2-0h2-0h2-0h2-5-7--0h2-0h2-0h2-0h2-2-5-7-------------------------------|
A:-0---0---0---0---3-5--0---0---0---0---2-5-7-------------------------------|
E:--------------------------------------0-3-5-------------------------------|


    Small Solo (after he says "You best get out of the way")

e:--------------------------------------------------------------------------|
B:--------------------------------------------------------------------------|
G:--8^-8^-8^-8^-11-11^-11^-11^-11^--14-14-14-12-12-14-14-14-----------------|
D:----------------------------------------------------------14-14-----------|
A:--------------------------------------------------------------------------|
E:--------------------------------------------------------------------------|

e:-----------------------------------------------------------------15--15---|
B:--------------------------------------------------------------17-17--17---|
G:-14p12---------14p12-------------------14p12----16p14-14-14h17------------|
D:------14p12h14------14p12h14----------------14----------------------------|
A:-----------------------------15p12h15-------------------------------------|
E:--------------------------------------------------------------------------|


   Back to Body ("Road I cruise is a bitch now, baby!)
e:--------------------------------------------------------------------------|
B:-0h2-0h2-0h2-0h2-5-7--0h2-0h2-0h2-0h2-------------------------------------|
G:-0h2-0h2-0h2-0h2-5-7--0h2-0h2-0h2-0h2-------------------------------------|
D:-0h2-0h2-0h2-0h2-5-7--0h2-0h2-0h2-0h2-2-5-7-------------------------------|
A:-0---0---0---0---3-5--0---0---0---0---2-5-7-------------------------------|
E:--------------------------------------0-3-5-------------------------------|

e:--------------------------------------------------------------------------|
B:-0h2-0h2-0h2-0h2-5-7--0h2-0h2-0h2-0h2-------------------------------------|
G:-0h2-0h2-0h2-0h2-5-7--0h2-0h2-0h2-0h2-------------------------------------|
D:-0h2-0h2-0h2-0h2-5-7--0h2-0h2-0h2-0h2-2-5-7-------------------------------|
A:-0---0---0---0---3-5--0---0---0---0---2-5-7-------------------------------|
E:--------------------------------------0-3-5-------------------------------|


    Pre Main Solo (after he say "And Now I crush your face!)

e:--------------------------------------------------------------------------|
B:--------------------------------------------------------------------------|
G:--------------------------------------------------------------------------|
D:-------4-4------------4--9^--4~~~~~~--------------------------------------|
A:-4-4-7--7--7h9--4-4-7--7------------4~~~~~~-------------------------------|
E:--------------------------------------------------------------------------|


e:--------------------------------------------------------------------------|
B:--------------------------------------------------------------------------|
G:--------------------------------------------------------------------------|
D:-------4-4-------7-9-9^9^9^9^9^-------------------------------------------|
A:-4-4-7--7--7-9-9----------------------------------------------------------|
E:--------------------------------------------------------------------------|

e:-----------------------------------------------12---------------15--------|
B:-------------------------------------------------------13-13-13----12-----|
G:-12^12^12^12^-12^~12-------12----------12-11-14--14-14--------------------|
D:------------------------14----------14------------------------------------|
A:---------------------15-------15-15---------------------------------------|
E:--------------------------------------------------------------------------|

e:-15----15----15----15--------17~~~~~~~~~~~~~~-----------------------------|
B:---16^---16^---16^---16^--------------------------------------------------|
G:-------------------------17-----------------------------------------------|
D:--------------------------------------------------------------------------|
A:--------------------------------------------------------------------------|
E:--------------------------------------------------------------------------|


     The long awaited Main Solo

e:---12-12//0----17-17//0----12-12//0----17-17//0---------------------------|
B:---13-13//0----17-17//0----13-13//0----17-17//0---------------------------|
G:---12-12//0----------------12-12//0---------------------------------------|
D:--------------------------------------------------------------------------|
A:--------------------------------------------------------------------------|
E:--------------------------------------------------------------------------|

e:-13p12-----13p12--15---15---15---15-----15---15---15----------------------|
B:------13p12---------16^--16^--16^--16^----16^--16^--16^-------------------|
G:--------------------------------------------------------------------------|
D:--------------------------------------------------------------------------|
A:--------------------------------------------------------------------------|
E:--------------------------------------------------------------------------|

e:-15-----------15----------15----------------------------------------------|
B:---16^--15h17---16^---------18-17-15--------------------------------------|
G:------17-----------16-17------------17-16-17p16p14--14-15^15^15^~---------|
D:--------------------------------------------------17----------------------|
A:--------------------------------------------------------------------------|
E:--------------------------------------------------------------------------|

e:--------------------------------------------------------------------------|
B:--------17------------------17-----17-----17-----17-----17-----17-----17--|
G:-15^15^---15^15^15^15^-14h16--14h16--14h16--14h16--14h16--14h16--14h16----|
D:--------------------------------------------------------------------------|
A:--------------------------------------------------------------------------|
E:--------------------------------------------------------------------------|
[ Tab from: http://www.guitaretab.com/n/nugent-ted/13626.html ]
e:------------------------------------------15---15---15-----17-------------|
B:-17-17-17-17-17-17-17-17-17------------16^--16^--16^--16^-----------------|
G:-16-16-16-16-16-16-16-16-16-14-17-17-17------------------17---------------|
D:--------------------------------------------------------------------------|
A:--------------------------------------------------------------------------|
E:--------------------------------------------------------------------------|

e:------17-----17-----17----------------------------------------------------|
B:-16^----16^----16^----16^--15-----15--------------------------------------|
G:----17-----17-----17-----17--17-17--16-16-17-14-14h16h17-16-14------------|
D:---------------------------------------------------------------17-16------|
A:--------------------------------------------------------------------------|
E:--------------------------------------------------------------------------|

e:--------------------------------------------------------------------------|
B:--------------------------------------------------------------------------|
G:-------------------------------------------------14-16-17-17-17-17--------|
D:-14-14-16h17-16-16-16h17-17-17-17-16^~~~-14-14-14-------------------------|
A:--------------------------------------------------------------------------|
E:--------------------------------------------------------------------------|

e:-----------------------------------16^~~~--------------17-15--------------|
B:----------------15-17---------------------16^--16-------------15----------|
G:-17-16-17-16-17-------14-14-14-17------------17--14-17------17--16--------|
D:--------------------------------------------------------------------------|
A:--------------------------------------------------------------------------|
E:--------------------------------------------------------------------------|

e:-17-----15-----13-----12----10---8---7---5--------------555--17//0--------|
B:---15/13--13/12--12/10--10/8--8/7-7/5-5------------5-8-8------------------|
G:---------------------------------------7--7-5-555h7-----------------------|
D:--------------------------------------------------------------------------|
A:--------------------------------------------------------------------------|
E:--------------------------------------------------------------------------|

e:----------5-5-5------8-----5-8-7-8-7---8-7-5-------8-7-8-----8-7-5--------|
B:-5-7-8-7-5-----8------5-5-8---------5h7-----8-7-5h7------5-7-------8-7-5--|
G:----------------5-7-0-----------------------------------------------------|
D:--------------------------------------------------------------------------|
A:--------------------------------------------------------------------------|
E:--------------------------------------------------------------------------|

e:--5-----------------------------------------------------------------------|
B:--------------------------------------------------------------------------|
G:-7-5------------7---------------------------------------------------------|
D:----7------7h10---10-7-7-7------------------------------------------------|
A:------7h10-----------------2^2^-----2^2^-2^2^---3-7-5^~^~^----------------|
E:-------------------------------5-3-5----------5---------------------------|

e:----------------------------------------------------8---------8-----------|
B:--------------------------------------------------------------------------|
G:--------------------------------------------5h7-7-7^--------8^-7^--7------|
D:-----------------------------------------5h7--------10-7-10------10-------|
A:-3-5-3-------3-5-333---3-5-3-5p3--3-5-5/7---------------------------------|
E:-------5-3-5---------5----------h5----------------------------------------|

e:--------------------------------------------------------------------------|
B:-10----------------7^~~~-8------------------------------------------------|
G:-------------------7^~~~--7^-----7-7------------------------------9h12----|
D:---10-7-----7-7h10-7^~~~----10-7-----10^-7-7--------7-10h12--10h12--------|
A:--------7h10--------------------------------h10p7h10-------10-------------|
E:--------------------------------------------------------------------------|

e:----------------14-13-12-------------14-13-12-12h15p12------------14-13-12-|
B:---------------------------------------------------------------------------|
G:-7//14-12-12-12----------14-12-12-12-------------------14-12-12-12---------|
D:---------------------------------------------------------------------------|
A:---------------------------------------------------------------------------|
E:---------------------------------------------------------------------------|

e:-------------14-13-12-----15---15------17-17-17p15--15h17-17-17-17-14-----|
B:----------------------15^---16^--16^--------------17------------------13^-|
G:-14-12-12-12------------------------17------------------------------------|
D:--------------------------------------------------------------------------|
A:--------------------------------------------------------------------------|
E:--------------------------------------------------------------------------|

e:---------------------------------------17-17/0----------------------------|
B:-5-5-----5----------------------5/0---------------------------------------|
G:-5-5-5-7---7-5-------------5----5/0---------------------------------------|
D:-5-5-----------5-5-555---5---7--5/0---------------------------------------|
A:-----------------------7--------------------------------------------------|
E:--------------------------------------------------------------------------|

  End of Solo (took forever to tab)

e:--------------------------------------------------------------------------|
B:----5/0----7/0--------5/0----7/0------------------------------------------|
G:-5~-5/0--7~7/0------5~5/0--7~7/0------------------------------------------|
D:----5/0----7/0--------5/0----7/0------------------------------------------|
A:--------------------------------------------------------------------------|
E:--------------------------------------------------------------------------|

e:---------------------------------------------------------------------------|
B:-3-0-3-2-----3-0-3-3/5/3-2-----3-0-3-2-----3-0-3-3/5/3-2-------------------|
G:-4-0-4-2-----4-0-4-4/6/4-2-----4-0-4-2-----4-0-4-4/6/4-2-----5-5-5-5/7-----|
D:-5-0-5-2-----5-0-5-5/7/5-2-----5-0-5-2-----5-0-5-5/7/5-2-----5-5-5-5/7-5^~-|
A:---------0-0---------------0-0---------0-0---------------0-0-3-3-3-3/5-----|
E:---------------------------------------------------------------------------|

  "Sometimes you wana get higher, and sometimes you gotta start low. Some people think 
gona die some day, I got news you never got to go."

e:--------------------------------------------------------------------------|
B:-3-0-3-2-----3-0-3-3/5/3-2-----3-0-3-2-----3-0-3-3/5/3-2------------------|
G:-4-0-4-2-----4-0-4-4/6/4-2-----4-0-4-2-----4-0-4-4/6/4-2-----5-5-5-5/7----|
D:-5-0-5-2-----5-0-5-5/7/5-2-----5-0-5-2-----5-0-5-5/7/5-2-----5-5-5-5/7----|
A:---------0-0---------------0-0---------0-0---------------0-0-3-3-3-3/5----|
E:--------------------------------------------------------------------------|

  (pick slide)
e:--------------------------------------------------------------------------|
B:--------------------------------------------------------------------------|
G:--------------------------------------------------------------------------|
D:------------7-------------------------------------------------------------|
A:-20////-----7-------------------------------------------------------------|
E:-20////-----5-------------------------------------------------------------|

   "Come on Come on...."


   "Road I cruise is a bitch now, you know you cant turn me round!"
e:--------------------------------------------------------------------------|
B:-0h2-0h2-0h2-0h2-5-7--0h2-0h2-0h2-0h2-------------------------------------|
G:-0h2-0h2-0h2-0h2-5-7--0h2-0h2-0h2-0h2-------------------------------------|
D:-0h2-0h2-0h2-0h2-5-7--0h2-0h2-0h2-0h2-2-5-7-------------------------------|
A:-0---0---0---0---3-5--0---0---0---0---2-5-7-------------------------------|
E:--------------------------------------0-3-5-------------------------------|

e:--------------------------------------------------------------------------|
B:-0h2-0h2-0h2-0h2-5-7--0h2-0h2-0h2-0h2-------------------------------------|
G:-0h2-0h2-0h2-0h2-5-7--0h2-0h2-0h2-0h2-------------------------------------|
D:-0h2-0h2-0h2-0h2-5-7--0h2-0h2-0h2-0h2-2-5-7-------------------------------|
A:-0---0---0---0---3-5--0---0---0---0---2-5-7-------------------------------|
E:--------------------------------------0-3-5-------------------------------|


   Ending
e:--------------------------------------------------------------------------|
B:-------------------------5--5-5h7-7p5-------------------------------------|
G:-------------------------5--5-5h7-7p5-------------------------------------|
D:-5h7-----7-----7---7-----5--5-5h7-7p5-7-----7-----7---7-555-7-------------|
A:-0---000-0-000-0-0-0-000--0-----------0-000-0-000-0-0-0-------------------|
E:--------------------------------------------------------------------------|
       mmm   mmm   m   mmm  m             mmm   mmm   m

e:--------------------------------------------------------------------------|
B:-------------------------5--5-5h7-7p5-------------------------------------|
G:-------------------------5--5-5h7-7p5-------------------------------------|
D:-5h7-----7-----7---7-----5--5-5h7-7p5-7-----7-----7---7--5------7---------|
A:-0---000-0-000-0-0-0-000--0-----------0-000-0-000-0-0-0--5------7---------|
E:---------------------------------------------------------3------5---------|
       mmm   mmm   m   mmm  m             mmm   mmm   m
Related for Stranglehold tab
Stranglehold chords by Nugent Ted