Song name
# A B C D E F G H I J K L M N O P Q R S T U V W X Y Z

Number One Gun - These Things tab

Well this song is really simple. Drop D. Any questions or comments reach me at stevenalecperez@yahoo.com

INTRO/VERSE
E-------------------------------------------------------------------|
B-------------------------------------------------------------------|
G----3-3-3-3-3-3-3-3-3-3-3-3-3-3-3----------------------------------|
D----3-3-3-3-3-3-3-3-3-3-3-3-3-3-3----4-4-4-4-4-4-4-4-4-4-4-4-4-4-4-|
A----1-1-1-1-1-1-1-1-1-1-1-1-1-1-1----4-4-4-4-4-4-4-4-4-4-4-4-4-4-4-|
D-------------------------------------4-4-4-4-4-4-4-4-4-4-4-4-4-4-4-|

E-----------------------------------------------------------------|
B-----------------------------------------------------------------|
G-----------------------------------------------------------------|
D--1-1-1-1-1-1-1-1-1-1-1-1-1-1------4-4-4-4-4-4-4-4-4-4-4-4-4-4-4-|
A--1-1-1-1-1-1-1-1-1-1-1-1-1-1------4-4-4-4-4-4-4-4-4-4-4-4-4-4-4-|
D--1-1-1-1-1-1-1-1-1-1-1-1-1-1------4-4-4-4-4-4-4-4-4-4-4-4-4-4-4-|

FILL
E---------------------------------------------------------------------------|
B---------------------------------------------------------------------------|
G---------------------------------------------------------------------------|
D--3-3-3-3----------3-3-3-3-----------3-3-3-3-------------------------------|
A-----------1--4--------------6--4--------------1--4--4-4---6-6/4-4-3-3-3-3-|
D---------------------------------------------------------------------------|

CHORUS
E--------------------------|
B--------------------------|
G-3------6-------5-------4-|
D-3------6-------5-------4-|
A-1------4-------3-------2-|
D--------------------------|
Tap to rate this tab
 
# A B C D E F G H I J K L M N O P Q R S T U V W X Y Z