Song name
# A B C D E F G H I J K L M N O P Q R S T U V W X Y Z

10 13 - Katie tab

this is kwl song   

E|--------7-------8-------5----------------|
B|------7-------7-------7------------------|
G|----7-------7-------7--------------------|
D|--5-------5-------5----------------------| reapeat x3
A|-----------------------------------------|
E|-----------------------------------------|

after doinjg that 3 times finish on this

E|---------|
B|--5------|
G|--7------|
D|--7------|
A|--5------|
E|---------|

ill try to figure out the rest of the song if a can
Tap to rate this tab
 
# A B C D E F G H I J K L M N O P Q R S T U V W X Y Z