Song name
# A B C D E F G H I J K L M N O P Q R S T U V W X Y Z

10 Years - Waking Up tab

Help us improve GuitareTab! Take a short survey!
This is my first tab so dont get to pissed off it isn't 100% accurate lol.


*=let ring
s=slide
h=hammer-on
p=pull-off
/=slide up
\=slide down

verse(guitar 1)(no guitar 2)
|-------------------------|
|-------------------------|
|-------------------------|
|-9h10-10-9-9-12----------|5 times
|----------------10-12----|
|-------------------------|

chorus 1(heavy distortion)(both guitars)
|--------------------------------------------------|
|--------------------------------------------------|
|--------------------------------------------------|
|-9-9-9-10-10-10-7--7-7-7--9-9-9-10-10-10-7--7-7-7-|
|-7-7-7-7--7--7--7--7-7-7--7-7-7-7--7--7--7--7-7-7-|
|-7-7-7-7--7--7--7--7-7-7--7-7-7-7--7--7--7--7-7-7-|

|---------------|
|---------------|
|---------------|
|-3-3-3-3s5-5---|2 times
|-3-3-3-3s5-5---|
|-3-3-3-3s5-5---|


verse(guitar 1)(no guitar 2)
|-------------------------|
|-------------------------|
|-------------------------|
|-9h10-10-9-9-12----------|6 times
|----------------10-12----|
|-------------------------|


chorus 2(heavy distortion)(both guitars)
|--------------------------------------------------|
|--------------------------------------------------|
|--------------------------------------------------|
|-9-9-9-10-10-10-7--7-7-7--9-9-9-10-10-10-7--7-7-7-|
|-7-7-7-7--7--7--7--7-7-7--7-7-7-7--7--7--7--7-7-7-|
|-7-7-7-7--7--7--7--7-7-7--7-7-7-7--7--7--7--7-7-7-|

|---------------|
|---------------|
|---------------|
|-3-3-3-3s5-5---|2 times
|-3-3-3-3s5-5---|
|-3-3-3-3s5-5---|


verse(guitar 1)(no guitar 2)
|-------------------------|
|-------------------------|
|-------------------------|
|-9h10-10-9-9-12----------|6 times
|----------------10-12----|
|-------------------------|


chorus 3(heavy distortion)(both guitars)
|--------------------------------------------------|
|--------------------------------------------------|
|--------------------------------------------------|
|-9-9-9-10-10-10-7--7-7-7--9-9-9-10-10-10-7--7-7-7-|
|-7-7-7-7--7--7--7--7-7-7--7-7-7-7--7--7--7--7-7-7-|
|-7-7-7-7--7--7--7--7-7-7--7-7-7-7--7--7--7--7-7-7-|

|---------------|
|---------------|
|---------------|
|-3-3-3-3s5-5---|4 times
|-3-3-3-3s5-5---|
|-3-3-3-3s5-5---|

bridge(heavy distortion)(guitar 1)
|-------------------------|
|-------------------------|
|-------------------------|
|-9-10-10-9-9-12----------|4 times
|----------------10-12----|
|-------------------------|

(heavy distortion)(guitar 2)
|--------------------------------------------|
|--------------------------------------------|
|--------------------------------------------|
|-5--5-5-5--5--5-5-5--8--8-8-8--10--10-10-10-|4 times
|-5--5-5-5--5--5-5-5--8--8-8-8--10--10-10-10-|
|-5--5-5-5--5--5-5-5--8--8-8-8--10--10-10-10-|

end of bridge(heavy distortion)(guitar 1)
|------------------------------------|
|------------------------------------|
|------------------------------------|
|-5*/10\3-3-3-3-3s5-5----------------|
|-5*/10\3-3-3-3-3s5-5----------------|
|-5*/10\3-3-3-3-3s5-5----------------|


chorus 4(heavy distortion)(both guitars)
|--------------------------------------------------|
|--------------------------------------------------|
|--------------------------------------------------|
|-9-9-9-10-10-10-7--7-7-7--9-9-9-10-10-10-7--7-7-7-|
|-7-7-7-7--7--7--7--7-7-7--7-7-7-7--7--7--7--7-7-7-|
|-7-7-7-7--7--7--7--7-7-7--7-7-7-7--7--7--7--7-7-7-|

|-------------------|
|-------------------|
|-------------------|
|-3-3-3-3s5-5*---|3-| times
|-3-3-3-3s5-5*------|
|-3-3-3-3s5-5*------|

These are the lyrics to the song becuase i think its pretty kick ass. I saw them 1 time 
concert with korn and mudvayne and they rocked harder than both lol. Well yea im 14 
me if you have any corrections. My e-mail is kyleymon@hotmail.com. C-ya later!
Related for Waking Up tab