12 Stones - We Are One tab

I know some users are pretty accurate when it comes to tabs so let me start off by
that I didn't do this tab to be 100% like 12 Stones play it. I wanted to make it right
and I think I succeeded in doing so. As for the tuning, all my guitars are Drop C so I 
with it. Also, I didn't tab the exact strumming patterns, just the chords. You'll figure
everything else by yoursef ;)

Intro
D|--------------------------------------------------------------|
A|--------------------------------------------------------------|
F|--14-0-14-0-12-0-12-0-17-0-17-0-15-0-15-0---------------------|
C|--------------------------------------------------------------|
G|--------------------------------------------------------------|
C|--------------------------------------------------------------|

D|--------------------------------------------------------------|
A|--------------------------------------------------------------|
F|--15-0-15-0-14-0-14-0-12-0-12-0-12-0-12-0---------------------|
C|--------------------------------------------------------------|
G|--------------------------------------------------------------|
C|--------------------------------------------------------------|

Vers / Solo / Ending
D|-------------------------------------------------------------------|
A|-------------------------------------------------------------------|
F|-------------------------------------------------------------------|
C|--5-----8-----3------10--------------------------------------------|
G|--5-----8-----3------10--------------------------------------------|
C|--5-----8-----3------10--------------------------------------------|

Refrain
D|----------------------------------------------------------------------|
A|----------------------------------------------------------------------|
F|--------5----------3-----------------5--------------------------------|
C|---5----5----3-----3------------5----5----1-----3---------------------|
G|---5----3----3-----1------------5----3----1-----3---------------------|
C|---5---------3------------------5---------1-----3---------------------|
Tap to rate this tab
 
# A B C D E F G H I J K L M N O P Q R S T U V W X Y Z