Guitaretab - guitar tabs
Song name
# A B C D E F G H I J K L M N O P Q R S T U V W X Y Z

12 Stones - Tomorrow Comes Today tab

Tuning: Drop D (DAdGBE)

| .  palm-mute

Gives me goose bumps listening to this. ;) Rhythm not posted (except for Intro Riff and 
noted otherwise)

[Intro Riff]
{Part 1}                   {Part 2}
E|---------------5-----|   E|---------------------|
B|-----3---5-3-----3---|   B|---------------------|
G|---2---2-----2-------|   G|---------------------|
d|---------------------|   d|-----0---0-0-0-0-0---|
A|---------------------|   A|---------------------|
D|---------------------|   D|---0---0-------------|
                                ...............

[Verse 1] Continue playing [Intro Riff] {Part 1} thru the verse
{Part 1}
E|-----------------------|
B|-----------------------|
G|-----------------------| x2
d|---0----7----9----5----|
A|-----------------------|
D|-----------------------|
     ................

{Part 2} This comes in half way thru the verse. Release the palm muting on the 10s as 
lead up to the chorus
E|----------------------------|
B|----------------------------|
G|----------------------------|
d|---0----7----9----10---10---|
A|---0----7----9----10---10---|
D|-----------------------10---|
     ...................
[ Tab from: http://www.guitaretab.com/numeric/12-stones/255695.html ]
[Chorus] I'm not so sure if {Part 2} is actually guitar, but there's the notes adapted 
it ;) Repeat both of these parts as necessary
{Part 1}                    {Part 2} Rhythm IS posted here
E|----------------------|   E|----------------------|
B|----------------------|   B|-----7---8-7---10-7---|
G|----------------------|   G|---7---7-----7--------|
d|---0----7----9----5---|   d|----------------------|
A|---0----7----9----5---|   A|----------------------|
D|---0----7----9----5---|   D|----------------------|


[Verse 2] Includes the Intro Riff. Remember to do the same thing as the first verse when 
lead up to the chorus
E|------------------------------------------------|
B|------------------------------------------------|
G|------------------------------------------------|
d|---0----7----9----5----0----7----7----10---10---|
A|---0----7----9----5----0----7----9----10---10---|
D|-------------------------------------------10---|
     .......................................


[Bridge] Once {Part 1} and {Part 2} are done, just play the Intro Riff. {Part 2} doesn't 
in until the end of the second repeat of {Part 1}
{Part 1}                       {Part 2} Rhythm IS posted here
E|----------------------|      E|---------------------------------------|
B|----------------------|      B|------------------7-7-8-8-10-10-10-10--|
G|----------------------| x2   G|--6-6-7-7-9-9-9-9----------------------|
d|---2----5----0----7---|      d|---------------------------------------|
A|---2----5----0----7---|      A|---------------------------------------|
D|---2----5----0----7---|      D|---------------------------------------|

God bless. :)
Related for Tomorrow Comes Today tab
×
Best way to learn
"Tomorrow Comes Today"