Song name
# A B C D E F G H I J K L M N O P Q R S T U V W X Y Z

12 Stones - Tomorrow Comes Today tab

Title:  Tomorrow Comes Today
Artist: 12 Stones
Album:  The Only Easy Day Was Yesterday (EP)
Tuning: Dropped D (DADGBE)
Tabber: Phoenix94


Intro

Guitar 1 Eric Weaver (clean)
E|--------------5----|
B|---3---5---3---3---|
G|-2---2---2---------| x3
D|-------------------| 
A|-------------------|
D|-------------------|

Guitar 2 Justin Rimer (Slightly Distorted)
All notes palm muted
E|-------------------|
B|-------------------|
G|-------------------|
D|-------------------| 
A|-------------------| x2
D|-0-0-0-0-0-0-0-0---|


Verse

Guitar 1 Eric Weaver (clean)
E|--------------5----|
B|---3---5---3---3---|
G|-2---2---2---------| x15
D|-------------------| 
A|-------------------|
D|-------------------|

Guitar 2 Justin Rimer (Slightly Distorted)
All notes palm muted
E|-------------------|
B|-------------------|
G|-------------------|
D|-------------------| 
A|-------------------| *Play each note 16 times
D|-0---7---9---5-----|

Guitar 2 Justin Rimer (Distorted)
All notes palm muted except the 10
E|-------------------|          10
B|-------------------|
G|-------------------|
D|-------------------| 
A|-------------10----| *Play each note 16 times
D|-0---7---9---10----|


Chorus

Guitar 1 Eric Weaver (clean)
E|-------------------|
B|---7---8---7-10-7--|
G|-7---7---7---------| x8
D|-------------------| 
A|-------------------|
D|-------------------|

Guitar 2 Justin Rimer (Heavy Distorted)
E|-------------------|
B|-------------------|
G|-------------------|
D|-0---7---9---5-----| 
A|-0---7---9---5-----| *Play each chord 16 times
D|-0---7---9---5-----|


Verse

Guitar 1 Eric Weaver (clean)
E|--------------5----|
B|---3---5---3---3---|
G|-2---2---2---------| x15
D|-------------------| 
A|-------------------|
D|-------------------|

Guitar 2 Justin Rimer (Distorted)
All notes palm muted
E|-------------------|
B|-------------------|
G|-------------------|
D|-------------------| 
A|-------------------| *Play each note 16 times
D|-0---7---9---5-----|

Guitar 2 Justin Rimer (Distorted)
All notes palm muted except the 10
E|-------------------|          10
B|-------------------|
G|-------------------|
D|-------------------| 
A|-------------10----| *Play each note 16 times
D|-0---7---9---10----|


Chorus

Guitar 1 Eric Weaver (clean)
E|-------------------|
B|---7---8---7-10-7--|
G|-7---7---7---------| x16
D|-------------------| 
A|-------------------|
D|-------------------|

Guitar 2 Justin Rimer (Heavy Distorted)
E|-------------------|
B|-------------------|
G|-------------------|
D|-0---7---9---5-----| x2
A|-0---7---9---5-----| *Play each chord 16 times
D|-0---7---9---5-----|


Bridge

Guitar 1 Eric Weaver (Distorted)
E|-------------------|
B|-5---8---2---10----|
G|-4---7---3---9-----| x2
D|-2---5---0---7-----| *Play each chord 8 times
A|-------------------| *Hold the 7 chord after the second time
D|-------------------|           9
                                 10

Guitar 2 Justin Rimer (Heavy Distorted)
E|-------------------|
B|-------------------|
G|-------------------|
D|-2---5---0---7-----| x2
A|-2---5---0---7-----| *Play each chord 8 times
D|-2---5---0---7-----| *Hold the 7 chord after the second time
                                 7
                                 7
Breakdown

Guitar 1 Eric Weaver (clean)
E|--------------5----|
B|---3---5----3---3--|
G|-2---2---2---------| x8
D|-------------------| 
A|-------------------|
D|-------------------|


Chorus

Guitar 1 Eric Weaver (clean)
E|-------------------|
B|---7---8---7-10-7--|
G|-7---7---7---------| x16
D|-------------------| 
A|-------------------|
D|-------------------|

Guitar 2 Justin Rimer (Heavy Distorted)
E|-------------------|
B|-------------------|
G|-------------------|
D|-0---7---9---5-----| x2
A|-0---7---9---5-----| *Play each chord 16 times
D|-0---7---9---5-----|


Solo

Guitar 1 Eric Weaver (Distorted)
E|-------------------|
B|-------------------| 
G|-7-7-7-9-9-9-7-7---| 
D|-x-x-x-x-x-x-x-x---| x2
A|-5-5-5-7-7-7-5-5---|
D|-------------------|

E|---------------------------|
B|---------------------------| 
G|-14-14-14-12-12-12-11-11---| 
D|-x--x--x--x--x--x--x--x----| x2
A|-12-12-12-10-10-10-9--9----|
D|---------------------------|

E|-------------------|
B|-------------------| 
G|-7-/-9-9-/-11-9----| 
D|-x-/-x-x-/-x--x----| x2
A|-5-/-7-7-/-9--7----|
D|-------------------|

E|---------------------------|
B|---------------------------| 
G|-14-14-14-12-12-12-11-11---| 
D|-x--x--x--x--x--x--x--x----| x2
A|-12-12-12-10-10-10-9--9----|
D|---------------------------|

Guitar 2 Justin Rimer (Heavy Distorted)
While Guitar 1 plays the solo
E|-------------------|
B|-------------------|
G|-------------------|
D|-0---7---9---5-----| x2
A|-0---7---9---5-----| *Play each chord 16 times
D|-0---7---9---5-----|


Outro

Guitar 1 Eric Weaver (Distorted)
E|-------------------|
B|-------------------| 
G|-7~----------------| 
D|-x-----------------| 
A|-5~----------------|
D|-------------------|

Guitar 2 Justin Rimer (Heavy Distorted)
E|-------------------|
B|-------------------| 
G|-------------------| 
D|-0~----------------| 
A|-0~----------------|
D|-0~----------------|


That's it. Epic song. Hope you enjoy. Have Fun! :) 12 Stones rocks!
-Phoenix94
Tap to rate this tab
 
# A B C D E F G H I J K L M N O P Q R S T U V W X Y Z