1910 Fruitgum Company - Simple Simon Says tab

SIMON SAYS by 1910 Fruitgum Company


INTRO:
   
e|----------|
B|----------|
G|----------| then E-- then A----
D|-----4-2--|
A|-4-5------|
E|----------|


VERSE:
     A                           E
 I'd like to play a game that is so much fun
                              A
 And it's not so very hard to do
                                E
 The name of the game is Simple Simon says
                                     A (break)
 And I would like for you to play it to


CHORUS:
                       E
 Put your hands in the air (Simple Simon says)
                 A
 Shake them all about (Simple Simon says)
                  E
 Do it when Simon says (Simple Simon says)
                       A (break) then do the intro's riff
 And you will never be out


VERSE: A-E--A-

Simple Simon says put your hands on your head
Let your back bone slip Simon says


CHORUS: E--A--

Put your hands on your head
(Simple Simon says)
Bring them down by your side
(Simple Simon says)
Shake them to your left
(Simple Simon Says)
Now shake them to your right


SOLO:

e|-9-9-7----7-9-9-7-7-------9-9-7-7----7----|
B|-------10------------7-10---------10------|
G|---------------------------------------9--|
D|------------------------------------------|
A|------------------------------------------|
E|------------------------------------------|

e|-9-9-7----7-9-9-7-7-------9-9-7-7----7----|
B|-------10------------7-10---------10---10-|
G|------------------------------------------|
D|------------------------------------------|
A|------------------------------------------|
E|------------------------------------------|


CHORUS: E--A--

Put your hands on your head
(Simple Simon says)
Bring them down by your side
(Simple Simon says)
Shake them to your left
(Simple Simon says)
Now shake them to your right


VERSE: A-E--A-

Now that you have learnt
To play this game with me
You can see its not so hard to do
Let's try it once again
This time more carefully
And I hope the winner will be you


CHORUS: E--A--

Clap your hands in the air
(Simple Simon says)
Do it double time
(Simple Simon says)
Slow it down like before
(Simple Simon says)
Ah, your looking fine
(Simple Simon says)
Now clap them high in the air
(Simple Simon says)
Do it double time
(Simple Simon says)
Slow it down like before
(Simple Simon says)
Ah, your looking fine


* another tabulation for the request.. this song caught my attention.. hehe.. :)



NITRAM
04-29-11
06:54 PM
Tap to rate this tab
 
# A B C D E F G H I J K L M N O P Q R S T U V W X Y Z