Song name
# A B C D E F G H I J K L M N O P Q R S T U V W X Y Z

23 Red - Track 1 tab

23 Red

Track #1

Intro:

E|------3--3-------3--3--------3--3------3-------2-----3p2------|
B|-------3----------3-----------3---------3-------3-------------|
G|--------0----------0-----------0------2-------2---------------|
D|---2----------2----------------------0-------0----------------|
A|----2----------3---------2------------------------------------|
E|--------------------------3-----------------------------------|

Verse:

          G      Cmaj7      Em7      Dsus4      D      
E|--------3--------3---------3---------3--------2---------------|
B|--------3--------3---------3---------3--------3---------------|
G|--------0--------0---------0---------2--------2---------------|  x2
D|--------0--------2---------2---------0--------0---------------|
A|--------2--------3---------2---------0--------0---------------|
E|--------3--------0---------0---------0--------0---------------|
Tap to rate this tab
# A B C D E F G H I J K L M N O P Q R S T U V W X Y Z