Song name
# A B C D E F G H I J K L M N O P Q R S T U V W X Y Z

24-7 Spyz - Purple tab

Purple by 24-7 Spyz

Tabbed by SuperBeef (SuperBeefTabs@gmail.com)

This tab is my interpretation of others work, and is not for commercial use.

I only know the start of the song before the solo and it goes all funky, but this should 
be correct. But seeing as there are so few Spyz tabs I thought I would post anyway.

Drop D Tuning DADGBE

Intro


e-|-------------------|
B-|-------------------|
G-|-----8-------------|
D-|-0-7-8----1-1-1-1--|
A-|-0-7-6----1-1-1-1--|
D-|-0-7------1-1-1-1--|

D#5 is palm muted

e-|-----------------|
B-|-----------------|
G-|-----8-----------|
D-|-0-7-8----3-8-0--|
A-|-0-7-6----3-8-0--|
D-|-0-7------3-8-0--|


On the A#5 there seems to be some kind of (pinch?) harmonic.

Repeat 6 times.

Verse


e-|---------------------------|
B-|---------------------------|
G-|---------------------------|
D-|---------------------------|
A-|-----------2-1-----2-0---0-|
D-|-2-2-2-2-2-----3-3-----5---|


e-|---------------------------|
B-|---------------------------|
G-|---------------------------|
D-|---------------------------|
A-|-----------0-------0-------|
D-|-0-0-0-0-0---6-1-1---6-5-3-|


'Looking out the window...'

e-|--------------------------|
B-|--------------------------|
G-|--------------------------|
D-|-4-4-4-4-2-4--7-9-10-11-7-|
A-|-4-4-4-4-2-4--7-9-10-11-7-|
D-|-4-4-4-4-2-4--7-9-10-11-7-|

e-|------------------------|
B-|------------------------|
G-|------------------------|
D-|-2-2-2-2-0-2--5-7-8-9-5-|
A-|-2-2-2-2-0-2--5-7-8-9-5-|
D-|-2-2-2-2-0-2--5-7-8-9-5-|

Chorus

'Your soul belongs to the purple'

e-|-------------------|
B-|-------------------|
G-|-------------------|
D-|-0-0-0-/7-0-0-0-/8-|
A-|-0-0-0-/7-0-0-0-/8-|
D-|-0-0-0-/7-0-0-0-/8-|

e-|---------------------------|
B-|---------------------------|
G-|---------------------------|
D-|-0-0-0-/7------------------|
A-|-0-0-0-/7------3-2-1---0---|
D-|-0-0-0-/7--3-5-------5---0-|

Repeat

After (Palm muted)

e-|---------|
B-|---------|
G-|---------|
D-|-1-1-1-1-|
A-|-1-1-1-1-|
D-|-1-1-1-1-|

************************************

| /   slide up
| \   slide down
| h   hammer-on
| p   pull-off
| ~   vibrato
| +   harmonic
| x   Mute note
| b   Bend
| pb  Pre-bend
| br  Bend release
| pbr Pre-bend release
| brb Bend release bend

************************************
Tap to rate this tab
# A B C D E F G H I J K L M N O P Q R S T U V W X Y Z