Song name
# A B C D E F G H I J K L M N O P Q R S T U V W X Y Z

25 Days - Its Over tab

25 Days - It's Over


Intro- 2X
E----------------------------------
B----------------------------------
G-99999999-------------------------
D-99999999999999997777777799999999-
A-77777777999999997777777799999999-
E---------777777775555555577777777-

After the you play the intro the second time end with this
E---
B---
G-9-
D-9-  Let ring
A-7-
E---


Verse- 2X
E----------------------------------
B----------------------------------
G-99999999-------------------------
D-99999999999999997777777799999999-
A-77777777999999997777777799999999-
E---------777777775555555577777777-
  ..............p.m...............


Pre-Chorus- 1X
E---------------------------------
B---------------------------------
G-9-------------------------------
D-9-------9-------7-------9------- Let all notes ring
A-7-------9-------7-------9-------
E---------7-------5-------7-------


Chorus- 2X
E----------------------------------
B----------------------------------
G-99999999-------------------------
D-99999999999999997777777799999999-
A-77777777999999997777777799999999-
E---------777777775555555577777777-

After the you play the intro the second time end with this
E---
B---
G-9-
D-9-  Let ring
A-7-
E---


Verse- 2X
E----------------------------------
B----------------------------------
G-99999999-------------------------
D-99999999999999997777777799999999-
A-77777777999999997777777799999999-
E---------777777775555555577777777-
  ..............p.m...............


Pre-Chorus- 1X
E---------------------------------
B---------------------------------
G-9-------------------------------
D-9-------9-------7-------9------- Let all notes ring
A-7-------9-------7-------9-------
E---------7-------5-------7-------


Chorus- 2X
E----------------------------------
B----------------------------------
G-99999999-------------------------
D-99999999999999997777777799999999-
A-77777777999999997777777799999999-
E---------777777775555555577777777-

After the you play the intro the second time end with this
E---
B---
G-9-
D-9-  Let ring                  
A-7-
E---


End with 
E---
B---
G-9-
D-9-                    
A-7-
E---
Tap to rate this tab
# A B C D E F G H I J K L M N O P Q R S T U V W X Y Z