Song name
# A B C D E F G H I J K L M N O P Q R S T U V W X Y Z

2ne1 - Come Back Home tab

EADGBe

Capo at 1

Verse x2
   Bm7              A 
|--------0--0---0---------0--0---0--|
|------3----3---3-------2----2---2--|
|---------------------2-------------|
|----4------------------------------|
|--2--------2---2---0--------0---0--|
|-----------------------------------|

   Dsus2     A        G/D        F#m
|--------5---------------2----------|
|------5-----2---2h3--3----3-----2--|
|----7-------2---2----2------2---2--|
|-----------------------------------|
|--5---------0---0------------------|
|---------------------3----------2--|

Pre-Chorus
   Em7             A
|-----------------------------------|
|--------8-------8-------5-------5--|
|------7-------7-------6-------6----|
|----9-------9-------7-------7------|
|--7-------7------------------------|
|------------------5-------5--------|

   Dsus2           G
|--------5-------5------------------|
|------5-------5---------3-------3--|
|----7-------7---------4-------4----|
|--------------------5-------5------|
|--5-------5------------------------|
|------------------3-------3--------|
   Em7             A
|-----------------------------------|
|--------8-------8-------5-------5--|
|------7-------7-------6-------6----|
|----9-------9-------7-------7------|
|--7-------7------------------------|
|------------------5-------5--------|

   Bm7             B
|--------2-------2-2----------------|
|------5-------5---4-------5-7------|
|----4-------4-----4----------------|
|--------------------------2-4------|
|--2-------2-------2----------------|
|-----------------------------------|

Chorus
    G       F#      G       F#  
|-------5---2---2-------5---2---3---|
|---3---5---2---3---3---5---2---3---|
|---4---7---3---2---4---7---3---4---|
|---5---7---4---4---5---7---4---5---|
|---5---5---4---2---5---5---4---5---|
|---3-------2-------3-------2---3---|
        Dsus2   Bm      Dsus2   G

Verse x2
Pre-Chorus
Chorus

Verse x2 (Rap part)
Chorus
Tap to rate this tab
 
# A B C D E F G H I J K L M N O P Q R S T U V W X Y Z