Song name
# A B C D E F G H I J K L M N O P Q R S T U V W X Y Z

3 Doors Down - Here Without You Acoustic chords

3 Doors Down - Here Without You (Acoustic)

Tabbed off of the acoustic version on Seventeen Days
but can be used for electric lead as well. 

Original tabwork by whoever made Version 5 on UG.com
website (mr. Unregistered). I made some minor corrections
and I added the chord shapes for easier finger positions. 

This song is based around 4 chords: Am, F, G and C. 
Look for them in the tabs and adjust fingering accordingly, 
it makes it alot easier to play :)

Enjoy and feel free to comment with suggestions!



Capo on 1st Fret

Intro 

  Am                                   F            G  
e|-----------------------------------------------------------------------| 
B|---------1------0------0----1-----------------------------------0------| 
G|-------2----2------2-----2----2------------2----------------0----0-----| 
D|-----2--------2------2---------2-------- 3---3-----------0---0----0----| 
A|-0------------------------------0------3-------3-----------------------| 
E|-------------------------------------1------------3----------------3---| 


Verse (x3) 

  Am                                   G                    
e|-----------------------------------------------------------------------| 
B|----------1-----0------0----1-----------------0-----1------0----1/3----| 
G|-------2----2------2-----2----2------------0----0------0-----0---------| 
D|-----2--------2------2----------2--------0--------0------0-------------| 
A|---0------------------------------0------------------------------------| 
E|-------------------------------------3---------------------------------| 

 
  Am                                   F            G
e|-----------------------------------------------------------------------| 
B|---------1------0------0----1-----------------------------------0------| 
G|-------2----2------2-----2----2------------2----------------0----0-----| 
D|-----2--------2------2---------2-------- 3---3-----------0---0----0----| 
A|-0------------------------------0------3-------3-----------------------| 
E|-------------------------------------1------------3----------------3---| 


Chorus (x2) 

  C                                    G 
e|----------------0--(rest)--0-1-0--------------------3------1----0------| 
B|----------3----------------------3-1----------0--------0------------3--| 
G|-------0----0------------------------------0----0--------0---0----0---0| 
D|-----2--------2--------------------------0--------0--------------------| 
A|-3---------------------------------------------------------------------| 
E|-------------------------------------3---------------------------------| 


  Am                                   F             G      
e|-----------------------------------------------------------------------| 
B|----------1-----3----1------3-1---------------------------------0------| 
G|-------2----2------------2------2----------2---------------0------0----| 
D|-----2--------2-------------------2------3---3-----------0---0------0--| 
A|-0-------------------------------------3-------3-----------------------| 
E|-------------------------------------1------------3-------------------3| 


Verse (x3) 

  Am                                   G                    
e|-----------------------------------------------------------------------| 
B|----------1-----0------0----1-----------------0-----1------0----1/3----| 
G|-------2----2------2-----2----2------------0----0------0-----0---------| 
D|-----2--------2------2----------2--------0--------0------0-------------| 
A|---0------------------------------0------------------------------------| 
E|-------------------------------------3---------------------------------| 

 
  Am                                   F            G
e|-----------------------------------------------------------------------| 
B|---------1------0------0----1-----------------------------------0------| 
G|-------2----2------2-----2----2------------2----------------0----0-----| 
D|-----2--------2------2---------2-------- 3---3-----------0---0----0----| 
A|-0------------------------------0------3-------3-----------------------| 
E|-------------------------------------1------------3----------------3---| 


Chorus (x2) 

  C                                    G 
e|----------------0--(rest)--0-1-0--------------------3------1----0------| 
B|----------3----------------------3-1----------0--------0------------3--| 
G|-------0----0------------------------------0----0--------0---0----0---0| 
D|-----2--------2--------------------------0--------0--------------------| 
A|-3---------------------------------------------------------------------| 
E|-------------------------------------3---------------------------------| 


  Am                                   F             G      
e|-----------------------------------------------------------------------| 
B|----------1-----3----1------3-1---------------------------------0------| 
G|-------2----2------------2------2----------2---------------0------0----| 
D|-----2--------2-------------------2------3---3-----------0---0------0--| 
A|-0-------------------------------------3-------3-----------------------| 
E|-------------------------------------1------------3-------------------3| 


Interlude 
Strum 2 bars of Am C G F


Chorus (x4) 
  C                                    G 
e|----------------0----------0-1-0--------------------3------1----0------| 
B|----------3----------1---1-------3-1----------0--------0------------3--| 
G|-------0----0----------0-------------------0----0--------0---0----0---0| 
D|-----2--------2--------------------------0--------0--------------------| 
A|-3---------------------------------------------------------------------| 
E|-------------------------------------3---------------------------------| 


  Am                                   F             G      
e|-----------------------------------------------------------------------| 
B|----------1-----3----1------3-1---------------------------------0------| 
G|-------2----2------------2------2----------2---------------0------0----| 
D|-----2--------2-------------------2------3---3-----------0---0------0--| 
A|-0-------------------------------------3-------3-----------------------| 
E|-------------------------------------1------------3-------------------3| 


Outro
e|---------| 
B|---------| 
G|-2-------| 
D|-2-------| 
A|-0-------| 
E|---------|
Tap to rate this tab
 
# A B C D E F G H I J K L M N O P Q R S T U V W X Y Z