Guitaretab - guitar tabs
Song name
# A B C D E F G H I J K L M N O P Q R S T U V W X Y Z

3 Doors Down - Here Without You tab

here without you - 3 doors down

Tabbed by:Ian Cabiles
Email:ianne0719@yahoo.com

Tuning:standard-EADGBe

Intro;
      Am           Am7            F          G
e|----------------------------|-----------------------|
B|-------1---0--------0-h-1---|---------1---------3---|
G|-----2---2---2---2--------2-|------2--2------4--4---|
D|---2-----------2------------|----3----3----5----5---|
A|-0--------------------------|--3---------5----------|
E|----------------------------|-----------------------|

I.
      Am           Am7              G
e|--------------------------|-------------------------|
B|-------1---0-------0-h-1--|--------1---0-----1-h-3--|
G|-----2---2---2---2--------|----------0---0----------|
D|---2-----------2----------|-----0----------0--------|
A|-0------------------------|---2---------------------|
E|--------------------------|-3-----------------------|
  A hundred days had made me older since the last time that
  I saw your pretty face

      Am           Am7            F          G
e|----------------------------|-----------------------|
B|-------1---0--------0-h-1---|---------1---------3---|
G|-----2---2---2---2--------2-|------2--2------4--4---|
D|---2-----------2------------|----3----3----5----5---|
A|-0--------------------------|--3---------5----------|
E|----------------------------|-----------------------|

      Am           Am7              G
e|--------------------------|-------------------------|
B|-------1---0-------0-h-1--|--------1---0-----1-h-3--|
G|-----2---2---2---2--------|----------0---0----------|
D|---2-----------2----------|-----0----------0--------|
A|-0------------------------|---2---------------------|
E|--------------------------|-3-----------------------|
  A thousand lights had made me colder and I donít think
  I can look at this the same

      Am           Am7            F          G
e|----------------------------|-----------------------|
B|-------1---0--------0-h-1---|---------1---------3---|
G|-----2---2---2---2--------2-|------2--2------4--4---|
D|---2-----------2------------|----3----3----5----5---|
A|-0--------------------------|--3---------5----------|
E|----------------------------|-----------------------|


     Am           Am7              G
e|--------------------------|-------------------------|
B|-------1---0-------0-h-1--|--------1---0-----1-h-3--|
G|-----2---2---2---2--------|----------0---0----------|
D|---2-----------2----------|-----0----------0--------|
A|-0------------------------|---2---------------------|
E|--------------------------|-3-----------------------|
   But all the miles had separate

      Am           Am7            F          G
e|----------------------------|-----------------------|
B|-------1---0--------0-h-1---|---------1---------3---|
G|-----2---2---2---2--------2-|------2--2------4--4---|
D|---2-----------2------------|----3----3----5----5---|
A|-0--------------------------|--3---------5----------|
E|----------------------------|-----------------------|
  They disappeared now when Iím dreaming of your face

Chorus:
      C                            G
e|-----------0------3-1-0-----|-----------3-1-0-------|
B|-------3-----3----------0-3-|---------0-------0-----|
G|-----0---0-----0------------|-------0-----------0---|
D|---2------------------------|-----0-----------------|
A|-3--------------------------|---2-------------------|
E|----------------------------|-3---------------------|
  Iím here without you baby but your still on my lonely mind

     Am           Am7            F          G
e|----------------------------|-----------------------|
B|-------1---3---1----1-h-3---|---------1---------3---|
G|-----2---2---2---2----------|------2--2------4--4---|
D|---2---------------2--------|----3----3----5----5---|
A|-0--------------------------|--3--------/5----------|
E|----------------------------|-----------------------|
  I think about you baby and I dream about you all the time


          c                            G
e|-----------0------3-1-0-----|-----------3-1-0-------|
B|-------3-----3----------0-3-|---------0-------0-----|
G|-----0---0-----0------------|-------0-----------0---|
D|---2------------------------|-----0-----------------|
A|-3--------------------------|---2-------------------|
E|----------------------------|-3---------------------|
  Iím here without you baby but your still with me in my dreams
[ Tab from: http://www.guitaretab.com/numeric/3-doors-down/24373.html ]
     Am           Am7            F          G
e|----------------------------|-----------------------|
B|-------1---3---1----1-h-3---|---------1---------3---|
G|-----2---2---2---2----------|------2--2------4--4---|
D|---2---------------2--------|----3----3----5----5---|
A|-0--------------------------|--3--------/5----------|
E|----------------------------|-----------------------|
                  And tonight    itís only you and me

II.

    Am           Am7              G
e|--------------------------|-------------------------|
B|-------1---0-------0-h-1--|--------1---0-----1-h-3--|
G|-----2---2---2---2--------|----------0---0----------|
D|---2-----------2----------|-----0----------0--------|
A|-0------------------------|---2---------------------|
E|--------------------------|-3-----------------------|
The miles just keep rolling as the people either way to say hello

    Am           Am7            F          G
e|----------------------------|-----------------------|
B|-------1---0--------0-h-1---|---------1---------3---|
G|-----2---2---2---2--------2-|------2--2------4--4---|
D|---2-----------2------------|----3----3----5----5---|
A|-0--------------------------|--3---------5----------|
E|----------------------------|-----------------------|

Am           Am7              G
e|--------------------------|-------------------------|
B|-------1---0-------0-h-1--|--------1---0-----1-h-3--|
G|-----2---2---2---2--------|----------0---0----------|
D|---2-----------2----------|-----0----------0--------|
A|-0------------------------|---2---------------------|
E|--------------------------|-3-----------------------|
I hear this life is overrated but I hope it gets better as we go

    Am           Am7            F          G
e|----------------------------|-----------------------|
B|-------1---0--------0-h-1---|---------1---------3---|
G|-----2---2---2---2--------2-|------2--2------4--4---|
D|---2-----------2------------|----3----3----5----5---|
A|-0--------------------------|--3---------5----------|
E|----------------------------|-----------------------|

       C                            G
e|-----------0------3-1-0-----|-----------3-1-0-------|
B|-------3-----3----------0-3-|---------0-------0-----|
G|-----0---0-----0------------|-------0-----------0---|
D|---2------------------------|-----0-----------------|
A|-3--------------------------|---2-------------------|
E|----------------------------|-3---------------------|
  Iím here without you baby but your still on my lonely mind

     Am           Am7            F          G
e|----------------------------|-----------------------|
B|-------1---3---1----1-h-3---|---------1---------3---|
G|-----2---2---2---2----------|------2--2------4--4---|
D|---2---------------2--------|----3----3----5----5---|
A|-0--------------------------|--3--------/5----------|
E|----------------------------|-----------------------|
  I think about you baby and I dream about you all the time


          c                            G
e|-----------0------3-1-0-----|-----------3-1-0-------|
B|-------3-----3----------0-3-|---------0-------0-----|
G|-----0---0-----0------------|-------0-----------0---|
D|---2------------------------|-----0-----------------|
A|-3--------------------------|---2-------------------|
E|----------------------------|-3---------------------|
  Iím here without you baby but your still with me in my dreams

     Am           Am7            F          G
e|----------------------------|-----------------------|
B|-------1---3---1----1-h-3---|---------1---------3---|
G|-----2---2---2---2----------|------2--2------4--4---|
D|---2---------------2--------|----3----3----5----5---|
A|-0--------------------------|--3--------/5----------|
E|----------------------------|-----------------------|
                  And tonight    itís only you and me

    C      G    Em     F     G
e|---------3-----------1-----3-----|
B|--1------0-----------1-----3-----|
G|--0------0----0------2-----4-----|
D|--2------0----2------3-----5-----|
A|--3------2----2------3-----5-----|
E|---------3-----------1-----3-----|

C                  G
Everything I know, and anywhere I go
Em                        F            G
it gets hard but it wonít take away my love
C                            G
And when the last one falls, when itís all said and done
Em                        F              G
it get hard but it wonít take away my love

(Repeat Chorus two times..and thats it! thank you..)


special thanks to my big bro..General b0lokoy,my family at kay HEPE na si Ryan,Reyes,sa 
ko na si tinetot,cathy,chacha sa RO,cLaSm8,sa all AIR WIZARD, sa insan ko n si WHax,lalo 
kay ViVienne Carl...143 ko tlga toh..and that is 214..hahah thank you LORD!

comment's or question's email me @ ianne0719@yahoo.com


| /  slide up
| \  slide down
| h  hammer-on
| p  pull-off
| ~  vibrato
| +  harmonic
| x  Mute note
===============================================================================
Related for Here Without You tab