3 Doors Down - Here Without You tab

3 DOORS DOWN - HERE WITHOUT YOU

Hey, wassup? This is a really good song that I listen to constantly. I'm pretty sure 
this is almost 100% correct.

Capo I

Verse
Fig. 1            Fig. 2
 Am                F       G
-----------------|------------------|
----1--0--0-1----|-------------0----|
---2-2--2--2-2---|-----------0--0---|
--2---2--2----2--|-----3----0-0--0--|
-0---------------|--0-3-3---------3-|
---------------3-|-1-----3-3--------|

Chorus
 C                    G
--------0----1-0----|----3--1-0-----|
---1-3---1------3-1-|---0-0--0-0-3--|
--0---0---0---------|--0---0------0-|
-------2---2--------|---------------|
-3----------3-------|---------------|
--------------------|-3-------------|

 Am                F    G
-----------------|---------------|
----1--3--1-3-1--|----------0----|
---2-2--2--2-2-2-|--------0--0---|
--2---2--2-------|-----3-0-0--0--|
-0---------------|--0-3--------2-|
-----------------|-1----3--------|

Bridge
Just strum these chords
Am C F G

Last chord
 Am
---|
-1-|
-2-|
-2-|
-0-|
---|
Tap to rate this tab
 
# A B C D E F G H I J K L M N O P Q R S T U V W X Y Z