Song name
# A B C D E F G H I J K L M N O P Q R S T U V W X Y Z

3 Doors Down - She Is Love tab

-------------------------------------------------------------------------------
			     SHE IS LOVE - 3 DOORS DOWN
-------------------------------------------------------------------------------
Tabbed by:Denis
Email:

Tuning: standart tuning

                 Am7      Am       G                  Em7      Em
e|---------------0--------0--------3----3----3--------0--------0-------------|
B|---------------1--------1--------3----3----3--------0--------0-------------|
G|---------------0-h-2----2--------0----0----0--------0--------0-------------|
D|---------------2--------2--------0----0----0--------0-h-2----2-------------|
A|---------------0--------0--------2----2----2--------2--------2-------------|
E|---------------------------------3----3----3--------0--------0-------------|                
                 F
e|---------------1----1----1-||
B|---------------1----1----1-||
G|---------------2----2----2-||
D|---------------3----3----3-||
A|---------------3----3----3-||
E|---------------1----1----1-||

Actually, this one goes all over the song, excluding the part with the distortion.

Tap to rate this tab
# A B C D E F G H I J K L M N O P Q R S T U V W X Y Z