Song name
# A B C D E F G H I J K L M N O P Q R S T U V W X Y Z

3 Out Of 5 - So What tab

Help us improve GuitareTab! Take a short survey!
Band: 3 Out Of 5
Song: So What?!
Transcribed by: Mike Alliss
Email: Snowblind57@hotmail.com

Drop D

bass
--------------------------------
--------------------------------
--------------------------------
-22-0-22-0-2-0-22-0-333-0-555-0-
                                                                              
verse
-----------------
-----------------
-----------------
-3-2-------------
-----3-2-2h3p2-0-
-----------------
                                                                              
riff 2
-------------------------
-------------------------
-------------------------
-333-222-----------------
---------333-222-2h3p2-0-
-------------------------
                                                                              
chorus
-------------------------------
-------------------------------
-------------------------------
-------------------------------
-0-22-22--0-22-22--0-3333-5555-
-0-22-22--0-22-22--0-3333-5555-
Related for So What tab