Song name
# A B C D E F G H I J K L M N O P Q R S T U V W X Y Z

3 - Trust tab

I haven't found ONE single tab for this, So I did my best at trying to figure it out... 
it is.

e------------------------|
b------------------------|
g------------------------|(X2)
d------------------------|
a------10--9--10-xx-x----|
E------7---7--7--xx-x----|


e---------------------|
b---------------------|
g---------------------|(x2)
d---------------------|
a----9--7--9--xx-x----|
E----0--0--0--xx-x----|

Then.

e------------------------------|
b------------------------------|
g------------------------------|
d------------------------------|
a---999-9-10-10--12-12-12-12---|
E---000-0-0--0---0--0--0--0----|

Thats not the right rhythm, But you get the idea.


If anyone could correct this or make this better, that would be awesome go for it yo.
Tap to rate this tab
# A B C D E F G H I J K L M N O P Q R S T U V W X Y Z