Song name
# A B C D E F G H I J K L M N O P Q R S T U V W X Y Z

30 Seconds To Mars - Savior tab

Band: 30 Seconds To Mars
Song: Savior
Tuning: Drop D [DADGBE]

Posted By: Andreas Karlsson From Chronic Desire
[E-Mail: linkinparker_15@hotmail.com]

[Intro 1] Keyboard
e|-11-11-1111-11-11|-11-11-1111-11-11|-10-10-1010-10-10|-10-10-1010-10-10|
b|-----------------|-----------------|-----------------|-----------------|
g|-----------------|-----------------|-----------------|-----------------|
 
[Verse1] Guitar 1 [Tomo] x4  [Keyboard under theese tones]
e|-----------------|-----------------|-----------------|-----------------|
b|-8---------------|-8---------------|-13------11------|-10--------------|
g|-x---------------|-x---------------|-x-------x-------|-x---------------|
d|-5---------------|-5---------------|-10------8-------|-7---------------|
a|-----------------|-----------------|-----------------|-----------------|
D|-----------------|-----------------|-----------------|-----------------|
 
[Chorus1] Guitar 1 [Tomo]
e|-----------------|-----------------|-----------------|-----------------|
b|-10---11---13----|-10---11---13----|-10---11---13----|-10---11---13----|
g|-x----x----x-----|-x----x----x-----|-x----x----x-----|-x----x----x-----|
d|-7----8----10----|-7----8----10----|-7----8----10----|-7----8----10----|
a|-----------------|-----------------|-----------------|-----------------|
D|-----------------|-----------------|-----------------|-----------------|

e|-----------------|-----------------|-----------------|-----------------|
b|-10---11---13----|-10---11---13----|-10---11---13----|-15--------------|
g|-x----x----x-----|-x----x----x-----|-x----x----x-----|-x---------------|
d|-7----8----10----|-7----8----10----|-7----8----10----|-12--------------|
a|-----------------|-----------------|-----------------|-----------------|
D|-----------------|-----------------|-----------------|-----------------|

[Verse2] Guitar 1 [Tomo] x2  [Keyboard under theese tones]
e|-----------------|-----------------|-----------------|-----------------|
b|-8---------------|-8---------------|-13------11------|-10--------------|
g|-x---------------|-x---------------|-x-------x-------|-x---------------|
d|-5---------------|-5---------------|-10------8-------|-7---------------|
a|-----------------|-----------------|-----------------|-----------------|
D|-----------------|-----------------|-----------------|-----------------|

[Chorus2] Guitar 1 [Tomo]
e|-----------------|-----------------|-----------------|-----------------|
b|-10---11---13----|-10---11---13----|-10---11---13----|-10---11---13----|
g|-x----x----x-----|-x----x----x-----|-x----x----x-----|-x----x----x-----|
d|-7----8----10----|-7----8----10----|-7----8----10----|-7----8----10----|
a|-----------------|-----------------|-----------------|-----------------|
D|-----------------|-----------------|-----------------|-----------------|

e|-----------------|-----------------|-----------------|-----------------|
b|-10---11---13----|-10---11---13----|-10---11---13----|-15--------------|
g|-x----x----x-----|-x----x----x-----|-x----x----x-----|-x---------------|
d|-7----8----10----|-7----8----10----|-7----8----10----|-12--------------|
a|-----------------|-----------------|-----------------|-----------------|
D|-----------------|-----------------|-----------------|-----------------|

[Bridge] Guitar 1 [Tomo]
e|-----------------|-----------------|-----------------|
b|-----------------|-----------------|-----------------|
g|-----------------|-----------------|-----------------|
d|----12---10------|----10---8-------|-----8---7-------|
a|-----------------|-----------------|-----------------|
D|-5---------------|-8---------------|-5---------------|

e|-----------------|-----------------|-----------------|
b|-----------------|-----------------|-----------------|
g|-----------------|-----------------|-----------------|
d|----12---10------|----10---5-------|-3---------------|
a|-----------------|-----------------|-----------------|
D|-5---------------|-8---------------|-3~--------------|

[Verse3] Guitar 1 [Tomo] x2  [Keyboard under theese tones]
e|-----------------|-----------------|-----------------|-----------------|
b|-8---------------|-8---------------|-13------11------|-10--------------|
g|-x---------------|-x---------------|-x-------x-------|-x---------------|
d|-5---------------|-5---------------|-10------8-------|-7---------------|
a|-----------------|-----------------|-----------------|-----------------|
D|-----------------|-----------------|-----------------|-----------------|

[Chorus3/Outro] Guitar 1 [Tomo]
e|-----------------|-----------------|-----------------|-----------------|
b|-10---11---13----|-10---11---13----|-10---11---13----|-10---11---13----|
g|-x----x----x-----|-x----x----x-----|-x----x----x-----|-x----x----x-----|
d|-7----8----10----|-7----8----10----|-7----8----10----|-7----8----10----|
a|-----------------|-----------------|-----------------|-----------------|
D|-----------------|-----------------|-----------------|-----------------|

e|-----------------|-----------------|-----------------|-----------------|
b|-10---11---13----|-10---11---13----|-10---11---13----|-15--------------|
g|-x----x----x-----|-x----x----x-----|-x----x----x-----|-x---------------|
d|-7----8----10----|-7----8----10----|-7----8----10----|-12--------------|
a|-----------------|-----------------|-----------------|-----------------|
D|-----------------|-----------------|-----------------|-----------------|
Tap to rate this tab
# A B C D E F G H I J K L M N O P Q R S T U V W X Y Z