Song name
# A B C D E F G H I J K L M N O P Q R S T U V W X Y Z

30 Seconds To Mars - The Kill Acoustic tab

The Kill Acoustic Tab by 30 Seconds To Mars
so this song is realy awesome and this tab is a acoustic combo tab

standard tuning or half step down what ever you like


U=upstroke
D=downstroke
intro :x2
e ----------------------]----------------------]
B ----0----0----0----0--]---0----0----0----0---]
G ----------------------]----------------------]
D --55-5-55-5-55-5-55-5-|-77-7-77-7-77-7-77-7--]
A --3----3----3----3----]-5----5----5----5-----]
E ----------------------]----------------------]

e -----------------------]----------------------]
B ----0----0----0----0---]---0----0----0---0----]
G -----------------------]----------------------]
D --99-9-99-9-99-9-99-9--|-44-4-44-4-44-4-4-4---]
A --7----7----7----7-----]-2----2----2----2-----]
E -----------------------]----------------------]

CHORUS
   d dudud dudud dududududu d dudud dudud dududududud
e -0-00000-00000-0000000000-5-55555-55555-5555xxxxxx-]
B -0-00000-00000-0000000000-5-55555-55555-5555xxxxxx-]
G -5-55555-55555-5555555555-7-77777-77777-7777111111-] 11's
D -5-55555-55555-5555555555-7-77777-77777-7777xxxxxx-]
A -3-33333-33333-3333333333-5-55555-55555-5555999999-]
E -x-xxxxx-xxxxx-xxxxxxxxxx-x-xxxxx-xxxxx-xxxxxxxxxx-]

   d dudud dudud dudud dudu
e -0-00000-00000-00000-0000----------------222222-]
B -0-00000-00000-00000-0000----------------222222-]
G -9-99999-99999-99999-9999-44xxxx44xxxx44x444444-]
D -9-99999-99999-99999-9999-44xxxx44xxxx44x444444-]
A -7-77777-77777-77777-7777-22xxxx22xxxx22x222222-]
E -x-xxxxx-xxxxx-xxxxx-xxxx-----------------------]

VERSE 2:x2
e -3p0--------|   ------------|
B -----1p0--0~|   ------------|
G ---------0--|   -------11/12|
D ------------|x4 -9h10p9-----|x4
A ------------|   ------------|
E ------------|   ------------|

e -3p0--------|   ------------|    -------------------|
B -----1p0--0~|   ------------|    ------10~-------12-|
G ---------0--|   -------11/12|    -------------------|
D ------------|x4 -9h10p9-----|x2  9h10p9----9h10p9---| x2
A ------------|   ------------|    -------------------|
E ------------|   ------------|    -------------------|


CHORUS2
   d dudud dudud dududududu d dudud dudud dududududud
e -0-00000-00000-0000000000-0-00000-00000-0000xxxxxx-]
B -0-00000-00000-0000000000-0-00000-00000-0000xxxxxx-]
G -5-55555-55555-5555555555-7-77777-77777-7777111111-] 11's
D -5-55555-55555-5555555555-7-77777-77777-7777xxxxxx-]
A -3-33333-33333-3333333333-5-55555-55555-5555999999-]
E -x-xxxxx-xxxxx-xxxxxxxxxx-x-xxxxx-xxxxx-xxxxxxxxxx-]

   d dudud dudud dudud dudu d dudu d dudu d dudu d  dudu
e -0-00000-00000-00000-0000-0-0000-0-0000-0-0000-0--0000------|
B -0-00000-00000-00000-0000-0-0000-0-0000-0-0000-0--0000------|
G -9-99999-99999-99999-9999-4-4444/5/5555/7-7777/14-14141414--|
D -9-99999-99999-99999-9999-x-xxxx-x-xxxx-x-xxxx-x--xxxx------|
A -7-77777-77777-77777-7777-2-2222/3/3333/5-5555/12-12121212--|
E -x-xxxxx-xxxxx-xxxxx-xxxx-----------------------------------|


   d dudud dudud dududududu d dudud
e -0-00000-00000-0000000000-0-00000-0000-0-0-0--0-0-0--0-0-0---------]
B -0-00000-00000-0000000000-0-00000-0000-0-0-0--0-0-0--0-0-0---------]
G -5-55555-55555-5555555555-7-77777-7777/141414/121212/1111111112/7--]
D -5-55555-55555-5555555555-7-77777-7777/xxxxxx/xxxxxx/xxxxxxxxxxxxx-]
A -3-33333-33333-3333333333-5-55555-5555/121212/101010/9-9-9-9/10/5--]
E -x-xxxxx-xxxxx-xxxxxxxxxx-x-xxxxx-xxxx---------------------------x-]


     d dudud dudud dudud dudu
e -0-00000-00000-00000-0000-----------------2-2-2-]
B -0-00000-00000-00000-0000-----------------2-2-2-]
G -9-99999-99999-99999-9999-44xxxx44xxxx44xx4-4-4-]
D -9-99999-99999-99999-9999-44xxxx44xxxx44xx4-4-4-]
A -7-77777-77777-77777-7777-22xxxx22xxxx22xx2-2-2-]
E -x-xxxxx-xxxxx-xxxxx-xxxx-----------------------]

bridge
   dududu ddu duddudududud    du    du    dudu
e ----------------------------------------0000-]
B ------------------------xxxx--xxxx--xxxx0000-]
G ----------------------99xxxx99xxxx99xxxx9999-]
D -7x7777x555/9x9999x99999xxxx99xxxx99xxxx9999
A -7x7777x777/9x9999x99977----77----77----7777-]
E -5x5555x555/7x7777x777-----------------------]

  dududu ddu duddudududud    du    du    dudu
e ----------------------------------------0000-]
B ------------------------xxxx--xxxx--xxxx0000-]
G ------------7-7777-77799xxxx99xxxx99xxxx9999-]
D -9x9999x999/5x5555x77799xxxx99xxxx99xxxx9999x2
A -9x9999x999/5x5555x55577----77----77----7777-]
E -7x7777x777/---------------------------------]

 dududu ddu duddudududud    du    du    dudu
e ----------------------------------------0-0-0-0-]
B ------------------------xxxx--xxxx--xxxx0-0-0-0-]
G ------------7-7777-77799xxxx99xxxx99xxxx9-9-9-9-]
D -9x9999x999/5x5555x77799xxxx99xxxx99xxxx9-9-9-9-]
A -9x9999x999/5x5555x55577----77----77----7-7-7-7-]
E -7x7777x777/------------------------------------]

e --------------7-00000-0000/x--xxxxxxx-xxxxxxxx---------------------12-----]
B --------------7-00000-0000/x--xxxxxxx-xxxxxxxx---12-10-12-10-12-10---12~--]
G -555555-------9-99999-9999/11-1111/12-12121212----------------------------]
D -555555x6-----x-99999-9999/x--xxxxxxx-xxxxxxxx----------------------------]
A -333333-------7-77777-7777/9--9999/10-10101010----------------------------]
E --------------x-xxxxx-xxxxx-xxxxx-xxxx------------------------------------]


repeat chorusx?  THEN VERSE

e -3p0--------|   ------------|
B -----1p0--0~|   ------------|
G ---------0--|   -------11/12|
D ------------|x4 -9h10p9-----|x4
A ------------|   ------------|
E ------------|   ------------|

e -3p0--------|   ------------|    -------------------|
B -----1p0--0~|   ------------|    ------10~-------12-|
G ---------0--|   -------11/12|    -------------------|
D ------------|x4 -9h10p9-----|x2  9h10p9----9h10p9---| x2
A ------------|   ------------|    -------------------|
E ------------|   ------------|    -------------------|
Tap to rate this tab
 
# A B C D E F G H I J K L M N O P Q R S T U V W X Y Z