Song name
# A B C D E F G H I J K L M N O P Q R S T U V W X Y Z

30 Seconds To Mars - Kill Acoustic tab

You can play this in standard tuning or half step down... It's up to you.

VERSE 1:
e -----------------------]-----------------------]
B ----0----0-----0----0--]----0----0-----0----0--]
G ---0-0--0-0---0-0--0-0-]---0-0--0-0---0-0--0-0-]
D --5----5-----5----5----]--7----7-----7----7----]
A -3-----3----3-----3----]-5-----5----5-----5----]
E -----------------------]-----------------------]
                                                     2X
e -----------------------]-----------------------]
B ----0----0-----0----0--]----0----0-----0----0--]
G ---0-0--0-0---0-0--0-0-]---0-0--0-0---0-0--0-0-]
D --9----9-----9----9----]--4----4-----4----4----]
A -7-----7----7-----7----]-2-----2----2-----2----]
E -----------------------]-----------------------]

CHORUS:

( with two guitars you can play verse 1 on the backround)

e ---------------------------------------------------]
B ---------------------------------------------------]
G -555555555555555555555555-777777777777777777777777-]
D -555555555555555555555555-777777777777777777777777-]
A -333333333333333333333333-555555555555555555555555-]
E -000000000000000000000000-000000000000000000000000-]

e ---------------------------------------------------]
B ---------------------------------------------------]
G -999999999999999999999999-444444444444444444444444-]
D -999999999999999999999999-444444444444444444444444-]
A -777777777777777777777777-222222222222222222222222-]
E -000000000000000000000000-000000000000000000000000-]

VERSE 2:

(you can play verse 1 on the backround here too)

e ---------------------------------------------------------]
B ---------------------------------------------------------]
G -12-9----------12-9----------12-9----------12-9----------]
D -----10-9-10-9-----10-9-10-9-----10-9-10-9-----10-9-10-9-]
A ---------------------------------------------------------]
E ---------------------------------------------------------]

e ---------------------------------------------]
B ---------------------------------------------]
G --------12---------12---------12---------12--]
D -9-10-9---9--9-10-9--9--9-10-9--9--9-10-9--9-]
A ---------------------------------------------]
E ---------------------------------------------]
                                                               2X
e ---------------------------------------------------------]
B ---------------------------------------------------------]
G -12-9----------12-9----------12-9----------12-9----------]
D -----10-9-10-9-----10-9-10-9-----10-9-10-9-----10-9-10-9-]
A ---------------------------------------------------------]
E ---------------------------------------------------------]

e --------------------------------------------]
B -----------------------------10---------12--]
G -------12---------12------------------------]
D -9-10-9--9--9-10-9--9--9-10-9--9--9-10-9--9-]
A --------------------------------------------]
E --------------------------------------------]

CHORUS 2X

BRIDGE:

e --------------------------------------------------------]
B --------------------------------------------------------]
G -55555555555555-77777777777777-999999999999999999999999-]  4X
D -55555555555555-77777777777777-999999999999999999999999-]
A -33333333333333-55555555555555-777777777777777777777777-]
E --------------------------------------------------------]

BREAK:

e -----------------------]
B -----------------------]
G ----------------555555 ](figure out the strumming pattern)
D -77777777777777-555555-]
A -77777777777777-333333-]
E -55555555555555--------]

e ------------------------------------------------------------]
B ------------------------------------------------------------]
G -16-16-16-16-16-16--14-14-14-14-14-14--12-12-12-12-12-12-12-]
D ------------------------------------------------------------]
A -14-14-14-14-14-14--12-12-12-12-12-12--10-10-10-10-10-10-10-]
E ------------------------------------------------------------]

e -----------------------]
B ------------------15---]
G -16-14-16-14-16-14--16-]
A -----------------------]
E -----------------------]

OUTRO:


e ---------------------------------------------------------]
B ---------------------------------------------------------]
G -12-9----------12-9----------12-9----------12-9----------]
D -----10-9-10-9-----10-9-10-9-----10-9-10-9-----10-9-10-9-]
A ---------------------------------------------------------]
E ---------------------------------------------------------]

e ---------------------------------------------]
B ---------------------------------------------]
G --------12---------12---------12---------12--]
D -9-10-9---9--9-10-9--9--9-10-9--9--9-10-9--9-]
A ---------------------------------------------]
E ---------------------------------------------]

e ---------------------------------------------------------]
B ---------------------------------------------------------]
G -12-9----------12-9----------12-9----------12-9----------]
D -----10-9-10-9-----10-9-10-9-----10-9-10-9-----10-9-10-9-]
A ---------------------------------------------------------]
E ---------------------------------------------------------]

e --------------------------------------------]
B -----------------------------10---------12--]
G -------12---------12------------------------]
D -9-10-9--9--9-10-9--9--9-10-9--9--9-10-9--9-]
A --------------------------------------------]
E --------------------------------------------]

And that's it! I know it's not 100% accurate but that's how i play it.Hope I didn't 
anything..Please rate this tab. Enjoy!
Tap to rate this tab
 
# A B C D E F G H I J K L M N O P Q R S T U V W X Y Z