Song name
# A B C D E F G H I J K L M N O P Q R S T U V W X Y Z

30 Seconds To Mars - This Is War tab

30 Seconds to Mars- This is war (INTRO 'from what I heard')
(Album release: December 8th 2009)

Drop D#  (D# G# C# F# A# D#)

D#|-----------------|-----------------|-----------------|-----------------|
A#|-----------------|-----------------|-----------------|-----------------|
F#|------4---4-4-4--|------2---2-2-2--|------0---0-0-0--|-----------------|
C#|--2-2------------|-----------------|-----------------|------2---2-2-2--|
G#|-----------------|-----------------|--3-3------------|--0-0------------|
D#|-----------------|--3-3------------|-----------------|-----------------|

D#|-----------------|-----------------|-----------------|-----------------|
A#|-----------------|-----------------|-----------------|-----------------|
F#|------4---4-4-4--|------2---2-2-2--|------0---0-0-0--|------2---2-2-2--|
C#|--2-2------------|-----------------|-----------------|--0-0------------|
G#|-----------------|-----------------|--3-3------------|-----------------|
D#|-----------------|--3-3------------|-----------------|-----------------|

D#|-----------------|-----------------|-----------------|-----------------|
A#|-----------------|-----------------|-----------------|----------5-5-5--|
F#|------4---4-4-4--|------2---2-2-2--|------0---0-0-0--|----------x-x-x--|
C#|--2-2------------|-----------------|-----------------|------2---2-2-2--|
G#|-----------------|-----------------|--3-3------------|--0-0------------|
D#|-----------------|--3-3------------|-----------------|-----------------|


Hope you'll like it !!!!
Tap to rate this tab
# A B C D E F G H I J K L M N O P Q R S T U V W X Y Z