Song name
# A B C D E F G H I J K L M N O P Q R S T U V W X Y Z

30 Seconds To Mars - From Yesterday tab

 intro and verse???????
            
 chorus
e[-------------------------]
B[-----------------x8--x8--]
G[--x16--x16--x16-7---8----]
D[-8----3----5----7---6----]X2
A[-8----3----5----5---6----]
E[-6----1----3-------------]
          
verse???(i don't know it)
 
chorus
e[-------------------------------------]
B[-----------------x8--x8----------x16-]
G[--x16--x16--x16-7---8----------10----]
D[-8----3----5----7---6---X2THEN-8-----]
A[-8----3----5----5---6----------8-----]
E[-6----1----3-------------------------]


bridge thingy
e[-----------------------------------------------------------------]
B[-----------------------------------------------------------------]
G[--------------------33-------------------------------------------]
D[-55-------------55--33-77-55-------------55---3~3~55-------------]
A[-55-5556-555668-55--11-77-55-5556-555668-55---1~3~55-5556-555668-]
E[-33-------------33-----55-33-------------33---1~1~33-------------]

(CONTINUED)
e[-----------------------------------------]
B[-----------------------------------------]
G[-33--------------------------------------]
D[-33-77-55--------------------------------]
A[-11-77-55-5556-555668-3333333333333333---]
G[----55-33-------------1111111111111111---]
                  (PM)  ...............

      PLAY CHORUS 4 TIMES THEN

e[-------------------------]
B[---x16-------------------]
G[-10----------------------]
D[-8-----55-------------55-]
A[-8-----55-5556-555668-55-]
G[-------33-------------33-] 

Tap to rate this tab
 
# A B C D E F G H I J K L M N O P Q R S T U V W X Y Z